Song name
# A B C D E F G H I J K L M N O P Q R S T U V W X Y Z

Rise Against - Dead Ringer tab

Song: Dead Ringer
Album: Revolutions Per Minute
Artist: Rise Against

Intro 
|-------------------------------------------------| 
|-------------------------------------------------| 
|-------------------------------------------------| 
|-4-x-x-x-x-x-x-4-x-x-x-x-x-x-4-x-x-x-x-x-x-4-x-x-| 
|-4-x-x-x-x-x-x-4-x-x-x-x-x-x-4-x-x-x-x-x-x-4-x-x-| 
|-2-x-x-x-x-x-x-2-x-x-x-x-x-x-2-x-x-x-x-x-x-2-x-x-|

Verse                                        x2 
|---------------------------------------------|-------------|
|---------------------------------------------|-------------|
|-----5-6---------5-6-7-7-----5-6-----9-9-6-6-|-------------| Pick
|-4-4-5-6-5-5-4-4-5-6-7-7-4-4-5-6-5-5-x-x-x-x-|-4-4-4-4-4-4-| slide
|-4-4-3-4-5-5-4-4-3-4-5-5-4-4-3-4-5-5-7-7-4-4-|-4-4-4-4-4-4-|
|-2-2-----3-3-2-2---------2-2-----3-3---------|-2-2-2-2-2-2-|

Chorus 
|-------------------------------------------------------------------|
|-------------------------------------------------------------------|
|-9-9-9----------11-11-11----------9-9-9----------11-11-11-11-11-11-| x2 
|-9-9-9-11-11-11-11-11-11-12-12-12-9-9-9-11-11-11-11-11-11-11-11-11-|
|-7-7-7-11-11-11--9--9--9-12-12-12-7-7-7-11-11-11--9--9--9--9--9--9-|
|--------9--9--9----------10-10-10--------9--9--9-------------------|

Verse                                        x2 
|---------------------------------------------|-------------|
|---------------------------------------------|-------------|
|-----5-6---------5-6-7-7-----5-6-----9-9-6-6-|-------------| Pick
|-4-4-5-6-5-5-4-4-5-6-7-7-4-4-5-6-5-5-x-x-x-x-|-4-4-4-4-4-4-| slide
|-4-4-3-4-5-5-4-4-3-4-5-5-4-4-3-4-5-5-7-7-4-4-|-4-4-4-4-4-4-|
|-2-2-----3-3-2-2---------2-2-----3-3---------|-2-2-2-2-2-2-|

Chorus 
|-------------------------------------------------------------------|
|-------------------------------------------------------------------|
|-9-9-9----------11-11-11----------9-9-9----------11-11-11-11-11-11-| x2 
|-9-9-9-11-11-11-11-11-11-12-12-12-9-9-9-11-11-11-11-11-11-11-11-11-|
|-7-7-7-11-11-11--9--9--9-12-12-12-7-7-7-11-11-11--9--9--9--9--9--9-|
|--------9--9--9----------10-10-10--------9--9--9-------------------|

Bridge 
|-------------------------| 
|-------------------------| 
|-------------------------| 
|-------------------------| 
|-------------------------| 
|-2--3--4--3--2--3--4--3--| 
                                                                                                       x2
|-------------------------------------------------------------------------------------------------------|----|
|-------------------------------------------------------------------------------------------------------|----|
|-11-11-11-11-11-11-11-11-12-12-12-12-12-12-12-12-13-13-13-13-13-13-13-13-13-12-12-12-12-12-12-12-12-12-|-11-|
|--x--x--x--x--x--x--x--x--x--x--x--x--x--x--x--x--x--x--x--x--x--x--x--x--x--x--x--x--x--x--x--x--x--x-|--x-|
|--9--9--9--9--9--9--9--9-10-10-10-10-10-10-10-10-11-11-11-11-11-11-11-11-11-10-10-10-10-10-10-10-10-10-|--9-|
|-------------------------------------------------------------------------------------------------------|----|
                                                                                                          Hold
End					 
|---------------------------------------------|----|
|---------------------------------------------|----|
|-----5-6---------5-6-7-7-----5-6-----9-9-6-6-|----| 
|-4-4-5-6-5-5-4-4-5-6-7-7-4-4-5-6-5-5-x-x-x-x-|-4/-| 
|-4-4-3-4-5-5-4-4-3-4-5-5-4-4-3-4-5-5-7-7-4-4-|-4/-|
|-2-2-----3-3-2-2---------2-2-----3-3---------|-2/-|

Tap to rate this tab
# A B C D E F G H I J K L M N O P Q R S T U V W X Y Z