Song name
# A B C D E F G H I J K L M N O P Q R S T U V W X Y Z

Rise Against - Like The Angel tab

----------------------------------------------------------------------------
			     Like The Angel - Rise Against
----------------------------------------------------------------------------
Tabbed by:Jesse Kennedy
Email:axis.boldaslove@verizon.net

Tuning:Standard

at the very last part of the solo where i have brackets around [11], [13], [14], i'm 
indicating that you can play those notes but it sounds good without.

e|-----------------------------------------------------------------------------|
B|---------------------------9p7p6---------------------------------------------|
G|--------6--8b10r8--6--------------8p6p5--6-6-6-6--8-6-5--5/6-65--------------|
D|-----8----------------8------------------------------------------------------|
A|--8--------------------------------------------------------------------------|
E|-----------------------------------------------------------------------------|

e|-----------------------------------------------------------------------------|
B|-----------------------------------------------------------------------------|
G|--/15-15-15-15-15--13--------------------------------------------------------|
D|----------------------16-15--15/16-1615--11-11-11-11-13-11-10-10-11/1311-----|
A|-----------------------------------------------------------------------------|
E|-----------------------------------------------------------------------------|

e|---------------------------------------------------------------------------|
B|----------------------9-------------11h13h14--14/16--16-16-16--14-13-------|
G|--------6--8b10r8--6------10h11h13------------------------------------15---|
D|-----8---------------------------------------------------------------------|
A|--8------------------------------------------------------------------------|
E|---------------------------------------------------------------------------|

e|---------------------------------------------------------------------------|
B|------13-13----------------------------------------------------------------|
G|--15---------15--10-10-10-10--11--10---------------10h11h13----------------|
D|--------------------------------------11----11-13--------------------------|
A|---------------------------------------------------------------------------|
E|---------------------------------------------------------------------------|

e|---------------------------------------------------------------------------|
B|--[11]-----[13]-----[14]---------------------------------------------------|
G|---13b15----15b17----16b18=========let ring=========-----------------------|
D|---------------------------------------------------------------------------|
A|---------------------------------------------------------------------------|
E|---------------------------------------------------------------------------|


| /  slide up
|   slide down
| h  hammer-on
| p  pull-off
| ~  vibrato
| +  harmonic
| x  Mute note
============================================================================
Tap to rate this tab
 
# A B C D E F G H I J K L M N O P Q R S T U V W X Y Z