Song name
# A B C D E F G H I J K L M N O P Q R S T U V W X Y Z

Rise Against - Blood Red White And Blue tab

Artist: Rise Against
Song: Blood Red, White, and Blue
Album: Revolutions Per Minute
Tab by: Deathbat411
Tuning: Standard (low to high: EADGBe)

I didn't figure out the solo, sorry. please rate.
please comment on any errors, so i can improve it.
Have fun!   :) 

Intro (both guitars with distortion through whole song)
e|--------------------------------------------------------------|
B|--------------------------------------------------------------|
G|-8----8----8----10-10-11-11-11-11-11-11-11-11-6-6-6-6---------|
D|-8----8----8----10-10-11-11-11-11-11-11-11-11-6-6-6-6-8-8-8-8-|
A|-6-66-6-66-6-66-8--8--9--9--9--9--9--9--9--9--4-4-4-4-8-8-8-8-|
E|------------------------------------------------------6-6-6-6-| 4x
pm   ..   ..   ..

Pre-Verse Riff (guitar 1) (guitar 2 is silent)
e|----------------------------------------------------------------------|
B|----------------------------------------------------------------------|
G|----------------------------------------------------------------------|
D|----------------------------------------------------------------------|
A|-4-66-6666666----------4-66-6666666-99-9999999-4-66-6666666-----------|
E|-------------77-7777777------------------------------------77-7777777-| 

Fill (both guitars)
e|-------------------|
B|-------------------|
G|-6-666666666666666-|
D|-6-666666666666666-|
A|-4-444444444444444-|
E|-------------------| 

Verse (both guitars)
e|-----------------------------------------------------------------|
B|-----------------------------------------------------------------|
G|---88-8888888-------------88-8888888-11-11--11-11-11-11-11-11-11-|
D|---88-888888899-9999999---88-8888888-11-11--11-11-11-11-11-11-11-|
A|-4-66-666666699-9999999-4-66-6666666-9--9---9--9--9--9--9--9--9--|
E|-------------77-7777777------------------------------------------|

e|------------------------------------------|
B|------------------------------------------|
G|-6-88-8888888-----------6-666666666666666-|
D|-6-88-888888899-9999999-6-666666666666666-|
A|-4-66-666666699-9999999-4-444444444444444-|
E|-------------77-7777777-------------------|

e|-----------------------------------------------------------------|
B|-----------------------------------------------------------------|
G|---88-8888888-------------88-8888888-11-11--11-11-11-11-11-11-11-|
D|---88-888888899-9999999---88-8888888-11-11--11-11-11-11-11-11-11-|
A|-4-66-666666699-9999999-4-66-6666666-9--9---9--9--9--9--9--9--9--|
E|-------------77-7777777------------------------------------------|

e|------------------------------------------|
B|------------------------------------------|
G|-6-88-8888888-----------6-666666666666666-|
D|-6-88-888888899-9999999-6-666666666666666-|
A|-4-66-666666699-9999999-4-444444444444444-|
E|-------------77-7777777-------------------|

Pre-Chorus (both guitars)
e|-----------------------|
B|-----------------------|
G|-----------------------|
D|-----------------------|
A|-6-888-6-888-6-888-6-8-|
E|-4-666-4-666-4-666-4-6-|

Chorus (both guitars)
e|-----------------------------------------------------------------|
B|-----------------------------------------------------------------|
G|-8-8-8-8-8-8-8-8---------------------------------6-6-6-6-6-6-6-6-|
D|-8-8-8-8-8-8-8-8-9-9-9-9-9-9-9-9-4-4-4-4-4-4-4-4-6-6-6-6-6-6-6-6-|
A|-6-6-6-6-6-6-6-6-9-9-9-9-9-9-9-9-4-4-4-4-4-4-4-4-4-4-4-4-4-4-4-4-|
E|-----------------7-7-7-7-7-7-7-7-2-2-2-2-2-2-2-2-----------------| 4x

Pre-Verse (guitar two)
e|-----|
B|-----|
G|-(8)-|
D|-(8)-|
A|-(6)-|
E|-----| (while guitar one plays pre-verse riff at top of tab)

Fill (both guitars)
Verse (both guitars)
Pre-Chorus (both guitars)
Chorus 4x (both guitars)

Bridge (guitar one)                      (both guitars)
e|----------------------------------|    |-------------------|
B|----------------------------------|    |-------------------|
G|----------------------------------|    |-6-6-6-6-6-6-6-6-6-|
D|----------------------------------|    |-6-6-6-6-6-6-6-6-6-|
A|-6-6-6-6-----------------4-4-4-4--|    |-4-4-4-4-4-4-4-4-4-|
E|---------7-7-7-7-2-2-2-2----------| 3x |-------------------| 
pm . . . . . . . . . . . . . . . . 

Bridge (guitar two)
e|-----------------------------------------|
b|-----------------------------------------|
G|-(8)----------(8)----------8-8-8-8-8-8-8-|
D|-(8)----------(8)----------8-8-8-8-8-8-8-|
A|-(6)----------(6)----------6-6-6-6-6-6-6-|
E|-----------------------------------------|

(guitar one) (guitar two is silent)      (both guitars)
e|----------------------------------|    |-------------------|
B|----------------------------------|    |-------------------|
G|----------------------------------|    |-6-6-6-6-6-6-6-6-6-|
D|----------------------------------|    |-6-6-6-6-6-6-6-6-6-|
A|-6-6-6-6-----------------4-4-4-4--|    |-4-4-4-4-4-4-4-4-4-|
E|---------7-7-7-7-2-2-2-2----------| 3x |-------------------| 
pm . . . . . . . . . . . . . . . .

(guitar one) (guitar two is silent)      (both guitars)
e|----------------------------------|    |-------------------|
B|----------------------------------|    |-------------------|
G|----------------------------------|    |-6-6-6-6-6-6-6-6-6-|
D|----------------------------------|    |-6-6-6-6-6-6-6-6-6-|
A|-6-6-6-6-----------------4-4-4-4--|    |-4-4-4-4-4-4-4-4-4-|
E|---------7-7-7-7-2-2-2-2----------| 3x |-------------------| 
pm . . . . . . . . . . . . . . . .

(both guitars)
e|-----|
B|-----|
G|-(8)-|
D|-(8)-|
A|-(6)-|
E|-----|

Solo backing (guitar two)(I didn't figure out guitar one's solo, sorry)
e|-----------------------------------------------------------------|
B|-----------------------------------------------------------------|
G|---88-8888888-------------88-8888888-11-11--11-11-11-11-11-11-11-|
D|---88-888888899-9999999---88-8888888-11-11--11-11-11-11-11-11-11-|
A|-4-66-666666699-9999999-4-66-6666666-9--9---9--9--9--9--9--9--9--|
E|-------------77-7777777------------------------------------------|

e|------------------------------------------|
B|------------------------------------------|
G|-6-88-8888888-----------6-666666666666666-|
D|-6-88-888888899-9999999-6-666666666666666-|
A|-4-66-666666699-9999999-4-444444444444444-|
E|-------------77-7777777-------------------|

e|-----------------------------------------------------------------|
B|-----------------------------------------------------------------|
G|---88-8888888-------------88-8888888-11-11--11-11-11-11-11-11-11-|
D|---88-888888899-9999999---88-8888888-11-11--11-11-11-11-11-11-11-|
A|-4-66-666666699-9999999-4-66-6666666-9--9---9--9--9--9--9--9--9--|
E|-------------77-7777777------------------------------------------|

e|------------------------------------------|
B|------------------------------------------|
G|-6-88-8888888-----------6-666666666666666-|
D|-6-88-888888899-9999999-6-666666666666666-|
A|-4-66-666666699-9999999-4-444444444444444-|
E|-------------77-7777777-------------------|

Pre-Chorus (both guitars)

End

Key
pm - palm mute
( ) - let ring





Tap to rate this tab
# A B C D E F G H I J K L M N O P Q R S T U V W X Y Z