Song name
# A B C D E F G H I J K L M N O P Q R S T U V W X Y Z

Rise Against - Dead Ringer tab

Artist : Rise Against
Song : Dead Ringer
Album : Revolutions Per Minute
Tuning : Standard
Tabbed By : Aaron Kunde

/ = pickslide
^ = bend
* = let ring

Intro
|--------------------------|
|------------------------0-|
|------------------------0-|
|------------------------0-|
|-4xxxxxx4xxxxxx4xxxxxx4---|
|-2xxxxxx2xxxxxx2xxxxxx2---|


Verse
|------------------------------------------------------------------|
|------------------------------------------------------------------|
|------------------------------------------------------------------|
|-------5-6-------------5-6-777-------5-6-------99-999-------------|
|-4-444-3-4-555-2-4-444-3-4-555-4-444-3-4-555-2-77-777-1111-111111-|
|-2-222-----333-0-2-222---------2-222-----333-0---------9-9--9-9-9-|

------------------------------------------------------------------------------------------|
------------------------------------------------------------------------------------------|
------------------------------------------------------------------------------------------|
--------5-6-------------5-6-777-------5-6-------99-999-----------------------------//////-|
--4-444-3-4-555-2-4-444-3-4-555-4-444-3-4-555-2-77-777-1111-111111-444444444444444-//////-|
--2-222-----333-0-2-222---------2-222-----333-0---------9-9--9-9-9-222222222222222-//////-|


Chorus
|------------------------------------------------------------------------------------------|
|------------------------------------------------------------------------------------------|
|------------------------------------------------------------------------------------------|
|-99-999-------------1111-111111-------------99-999-------------1111-111111-11^11^11^11^11-|
|-77-777-1111-111111--9-9--9-9-9-1212-121212-77-777-1111-111111--9-9--9-9-9--9--9--9--9--9-|
|---------9-9--9-9-9-------------1010-101010---------9-9--9-9-9----------------------------|

|---------------------------------------------------------------------------|
|---------------------------------------------------------------19-19-1919--|
|---------------------------------------------------------------21^21^2121^-|
|-99-999-------------1111-111111-------------99-999-------------------------|
|-77-777-1111-111111--9-9--9-9-9-1212-121212-77-777-1111-111111-------------|
|---------9-9--9-9-9-------------1010-101010---------9-9--9-9-9-------------|


Verse
|------------------------------------------------------------------|
|------------------------------------------------------------------|
|------------------------------------------------------------------|
|-------5-6-------------5-6-777-------5-6-------99-999-------------|
|-4-444-3-4-555-2-4-444-3-4-555-4-444-3-4-555-2-77-777-1111-111111-|
|-2-222-----333-0-2-222---------2-222-----333-0---------9-9--9-9-9-|

------------------------------------------------------------------------------------------|
------------------------------------------------------------------------------------------|
------------------------------------------------------------------------------------------|
--------5-6-------------5-6-777-------5-6-------99-999-----------------------------//////-|
--4-444-3-4-555-2-4-444-3-4-555-4-444-3-4-555-2-77-777-1111-111111-444444444444444-//////-|
--2-222-----333-0-2-222---------2-222-----333-0---------9-9--9-9-9-222222222222222-//////-|


Chorus
|------------------------------------------------------------------------------------------|
|------------------------------------------------------------------------------------------|
|------------------------------------------------------------------------------------------|
|-99-999-------------1111-111111-------------99-999-------------1111-111111-11^11^11^11^11-|
|-77-777-1111-111111--9-9--9-9-9-1212-121212-77-777-1111-111111--9-9--9-9-9--9--9--9--9--9-|
|---------9-9--9-9-9-------------1010-101010---------9-9--9-9-9----------------------------|

|---------------------------------------------------------------------------|
|---------------------------------------------------------------19-19-1919--|
|---------------------------------------------------------------21^21^2121^-|
|-99-999-------------1111-111111-------------99-999-------------------------|
|-77-777-1111-111111--9-9--9-9-9-1212-121212-77-777-1111-111111-------------|
|---------9-9--9-9-9-------------1010-101010---------9-9--9-9-9-------------|

Interlude
|-----------------------------------------------------------------------------------------------------------------------------------------|
|-----------------------------------------1111-111111-1111-111111-1212-121212-1212-121212-1313-131313-1313-131313-1212-121212-1212-121212-|
|-----------------------------------------1111-111111-1111-111111-1111-111111-1111-111111-1111-111111-1111-111111-1111-111111-1111-111111-|
|-----------------------------------------------------------------------------------------------------------------------------------------|
|-----------------------------------------------------------------------------------------------------------------------------------------|
|-2----3----4----3----2----3----4----3----------------------------------------------------------------------------------------------------|
  *    *    *    *    *    *    *    *
-----------------------------------------------------------------------------------------------------|
--1111-111111-1111-111111-1212-121212-1212-121212-1313-131313-1313-131313-1212-121212-1212-121212-11-|
--1111-111111-1111-111111-1111-111111-1111-111111-1111-111111-1111-111111-1111-111111-1111-111111-11-|
-----------------------------------------------------------------------------------------------------|
-----------------------------------------------------------------------------------------------------|
-----------------------------------------------------------------------------------------------------|

Verse
|--------------------------------------------------------------------|
|--------------------------------------------------------------------|
|--------------------------------------------------------------------|
|-------5-6-------------5-6-777-------5-6-------99-999---------------|
|-4-444-3-4-555-2-4-444-3-4-555-4-444-3-4-555-2-77-777-1111-111111-4-|
|-2-222-----333-0-2-222---------2-222-----333-0---------9-9--9-9-9-2-|
Tap to rate this tab
 
# A B C D E F G H I J K L M N O P Q R S T U V W X Y Z