Song name
# A B C D E F G H I J K L M N O P Q R S T U V W X Y Z

Rise Against - Rumors Of My Demise Have Been Greatly Exaggerated tab

Tabbed by Jamie Harris
Tuning - down 1/2 step then drop D

Intro
Guitar 1
---------------------------------------|
---------------------------------------|
---------------------------------------|
-11-11-9h11p9-4--4-4-4/7--7-7-7/9--9-9-|
-11-11-9h11p9-4--4-4-4/7--7-7-7/9--9-9-|
-11-11-9h11p9-4--4-4-4/7--7-7-7/9--9-9-| x 4

After 2 rounds of guitar 1
Guitar 2
-------------------------------------------|
-------------------------------------------|
-13-13-9-9-11-11--13-13-14-13-13-9-9-11-11-|
-x--x--x-x-x--x---x--x--x--x--x--x-x-x--x--|
-11-11-7-7-9--9---11-11-12-11-11-7-7-9--9--|
-------------------------------------------| x 2

Verse
Guitar 2 (palm muted)
---------------------------------------|
---------------------------------------|
---------------------------------------|
---------------------------------------|
---------------------------------------|
-11-11-9h11p9-4--4-4-4/7--7-7-7/9--9-9-| x 4

Pre Chorus
Guitar 1
------------------------|
------------------------|
-2--2--2--2-------------|
-2--2--2--2--4--4--4--4-|
-0--0--0--0--4--4--4--4-|
-------------4--4--4--4-| x 3

Fourth time play
----------------|
----------------|
-2--2--2--2--4~-|
-2--2--2--2--4~-|
-0--0--0--0--2~-|
----------------|

Guitar 2
--------------------------|
-5-----5-----5-----5------|
--4-4-4-4-4-4-4-4-4-4-4-4-|
--------------------------|
--------------------------|
--------------------------| reapeat for a while

finish on
--------------7~-|
-5-----5---------|
--4-4-4-4-4-4----|
-----------------|
-----------------|
-----------------|

Chorus
Both Guitars
-----------------------------------------------------------------|
-----------------------------------------------------------------|
-----------------4-4-4-4-4-4-4-4-6-6-6-6-6-6-6-6-----------------|
-2-2-2-2-2-2-2-2-4-4-4-4-4-4-4-4-6-6-6-6-6-6-6-6-7-7-7-7-7-7-7-7-|
-2-2-2-2-2-2-2-2-2-2-2-2-2-2-2-2-4-4-4-4-4-4-4-4-7-7-7-7-7-7-7-7-|
-2-2-2-2-2-2-2-2---------------------------------7-7-7-7-7-7-7-7-| x 2

Do all that x 2 then

Bridge
Guitar 1
------|
------|
------|
-4--4-|
-4--4-|
-4--4-|

Guitar 2
---------------------------------|
---------------------------------|
-4h6-6-6-4h6-6-6-4h6-6-6-4h6-6-6-|
---------------------------------|
---------------------------------|
---------------------------------| just keep this going for the first
				  half of the bridge

Guitar 1
------------------------------|
------------------------------|
------------------------------|
-4-4---2-4-4---2-0-0---0-2-2--|
-4-4---2-4-4---2-0-0---0-2-2--|
-4-4---2-4-4---2-0-0---0-2-2--| x 2

then both guitars
------------------------------------------------------------------|
------------------------------------------------------------------|
------------------------------------------------------------------|
-4-4-4-4-4-4-4-2--4-4-4-4-4-4-4-2--0-0-0-0-0-0-0-0--2-2-2-2-2-2-2-|
-4-4-4-4-4-4-4-2--4-4-4-4-4-4-4-2--0-0-0-0-0-0-0-0--2-2-2-2-2-2-2-|
-4-4-4-4-4-4-4-2--4-4-4-4-4-4-4-2--0-0-0-0-0-0-0-0--2-2-2-2-2-2-2-| x 2

Pre-chorus then
Chorus twice
Tap to rate this tab
 
# A B C D E F G H I J K L M N O P Q R S T U V W X Y Z