Song name
# A B C D E F G H I J K L M N O P Q R S T U V W X Y Z

Rise Against - State Of The Union tab

----------------------------------------------------------------------------
			     State of The Union - Rise Against
----------------------------------------------------------------------------
Tabbed by: Ynot124
Email: Murtagh124124@yahoo.com

Tuning: Half Step Down

This is my First Tab, so Enjoy!

Intro Pt. 1
|---------------------------------------------|
|---------------------------------------------|
|---------------------------------------------|
|--2-2-2-2-3-3-3-3-4-4-4-4-5-5-5-5------------|
|--2-2-2-2-3-3-3-3-4-4-4-4-5-5-5-5------------|x4
|--0-0-0-0-1-1-1-1-2-2-2-2-3-3-3-3------------|

Intro Pt.2
(Play This First Section on low Volume if u have a Volume Petal)
|------------------------|-------------------------------------------------|
|------------------------|-------------------------------------------------|
|-------9----------------|------9----------------------9-------------------|
|--2--2-9------5--8-7--5-|-2--2-9------5--8-7--7--2--2-9------5--8-7--5----|
|--2--2-7--5---5--8-7--5-|-2--2-7--5---5--8-7--7--2--2-7--5---5--8-7--5--x1|
|--0--0----3p0-3--6-5--3-|-0--0----3p0-3--6-5--5--0--0----3p0-3--6-5--3----|

|-------------------------------------------------------------------------|
|-------------------------------------------------------------------------|
|---------------^---------------------------------------------------------|
|---------------2---------------------------------------------------------|
|-2-5-7-8-7-5-2-2---x1----------------------------------------------------|
|-0-3-5-6-5-3-0-0---------------------------------------------------------|

|-------------------------------------------------------------------------|
|-------------------------------------------------------------------------|
|-------9----------------------9----------------------9-------------------|
|--2--2-9------5--8-7--5--2--2-9------5--8-7--7--2--2-9------5--8-7--5----|
|--2--2-7--5---5--8-7--5--2--2-7--5---5--8-7--7--2--2-7--5---5--8-7--5--x1|
|--0--0----3p0-3--6-5--3--0--0----3p0-3--6-5--5--0--0----3p0-3--6-5--3----|

|-------------------------------------------------------------------------|
|-------------------------------------------------------------------------|
|---------------^---------------------------------------------------------|
|---------------2---------------------------------------------------------|
|-2-5-7-8-7-5-2-2---x1----------------------------------------------------|
|-0-3-5-6-5-3-0-0---------------------------------------------------------|

Verse 1
|--------------------------------------------------------------------------|
|--------------------------------------------------------------------------|
|-4------4-----4--4-7--5--4------4---5--5-5--5-5-5-4------4---4--4-7--5----|
|-4-2----4-2---4--4-7--5--4-2----4-2-5--5-5--5-5-5-4-2----4-2-4--4-7--5----|
|-2-2----2-2---2--2-5--3--2-2----2-2-3--3-3--3-3-3-2-2----2-2-2--2-5--3----|
|---0------0----------------0------0-----------------0------0--------------|

(Aternitive Picking Here)
|-----------------------------------------------------------------------|
|-----------------------------------------------------------------------|
|-4------4----5-5-5-5-5-5-5-5-5-5-5-5-5-7-7-7-7-7-7-7-7-7---------------|
|-4-2----4-2--5-5-5-5-5-5-5-5-5-5-5-5-5-7-7-7-7-7-7-7-7-7---------------|
|-2-2----2-2--3-3-3-3-3-3-3-3-3-3-3-3-3-5-5-5-5-5-5-5-5-5----x1---------|
|---0------0------------------------------------------------------------|

Chorus 1 (same as Intro Pt. 2)
|-------------------------------------------------------------------------|
|-------------------------------------------------------------------------|
|-------9----------------------9----------------------9-------------------|
|--2--2-9------5--8-7--5--2--2-9------5--8-7--7--2--2-9------5--8-7--5----|
|--2--2-7--5---5--8-7--5--2--2-7--5---5--8-7--7--2--2-7--5---5--8-7--5--x1|
|--0--0----3p0-3--6-5--3--0--0----3p0-3--6-5--5--0--0----3p0-3--6-5--3----|

|-------------------------------------------------------------------------|
|-------------------------------------------------------------------------|
|---------------^---------------------------------------------------------|
|---------------2---------------------------------------------------------|
|-2-5-7-8-7-5-2-2---x1----------------------------------------------------|
|-0-3-5-6-5-3-0-0---------------------------------------------------------|

|-------------------------------------------------------------------------|
|-------------------------------------------------------------------------|
|-------9----------------------9----------------------9-------------------|
|--2--2-9------5--8-7--5--2--2-9------5--8-7--7--2--2-9------5--8-7--5----|
|--2--2-7--5---5--8-7--5--2--2-7--5---5--8-7--7--2--2-7--5---5--8-7--5--x1|
|--0--0----3p0-3--6-5--3--0--0----3p0-3--6-5--5--0--0----3p0-3--6-5--3----|

|-------------------------------------------------------------------------|
|-------------------------------------------------------------------------|
|---------------^---------------------------------------------------------|
|---------------2---------------------------------------------------------|
|-2-5-7-8-7-5-2-2---x1----------------------------------------------------|
|-0-3-5-6-5-3-0-0---------------------------------------------------------|

Verse 2
|-----------------------------------------------------------------------|
|-----------------------------------------------------------------------|
|-4------4-----4--4-7--5--4------4---5--5-5--5-5-5-4------4-------------|
|-4-2----4-2---4--4-7--5--4-2----4-2-5--5-5--5-5-5-4-2----4-2-----------|
|-2-2----2-2---2--2-5--3--2-2----2-2-3--3-3--3-3-3-2-2----2-2----x1-----|
|---0------0----------------0------0-----------------0------0-----------|

(Aternitive Picking Here)
|-----------------------------------------------------------------------|
|-----------------------------------------------------------------------|
|-4------4----5-5-5-5-5-5-5-5-5-5-5-5-5-7-7-7-7-7-7-7-7-7---------------|
|-4-2----4-2--5-5-5-5-5-5-5-5-5-5-5-5-5-7-7-7-7-7-7-7-7-7---------------|
|-2-2----2-2--3-3-3-3-3-3-3-3-3-3-3-3-3-5-5-5-5-5-5-5-5-5----x1---------|
|---0------0------------------------------------------------------------|


Chorus 2

|-------------------------------------------------------------------------|
|-------------------------------------------------------------------------|
|-------9----------------------9----------------------9-------------------|
|--2--2-9------5--8-7--5--2--2-9------5--8-7--7--2--2-9------5--8-7--5----|
|--2--2-7--5---5--8-7--5--2--2-7--5---5--8-7--7--2--2-7--5---5--8-7--5--x1|
|--0--0----3p0-3--6-5--3--0--0----3p0-3--6-5--5--0--0----3p0-3--6-5--3----|

|---------------------------------------------------------------------------|
|---------------------------------------------------------------------------|
|-------------^-------------------------------------------------------------|
|-------------2-------------------------------------------------------------|
|-2-5-7-8-7-5-2---x1--------------------------------------------------------|
|-0-3-5-6-5-3-0-------------------------------------------------------------|

|-------------------------------------------------------------------------|
|-------------------------------------------------------------------------|
|-------9----------------------9----------------------9-------------------|
|--2--2-9------5--8-7--5--2--2-9------5--8-7--7--2--2-9------5--8-7--5----|
|--2--2-7--5---5--8-7--5--2--2-7--5---5--8-7--7--2--2-7--5---5--8-7--5--x1|
|--0--0----3p0-3--6-5--3--0--0----3p0-3--6-5--5--0--0----3p0-3--6-5--3----|

|-------------------------------------------------------------------------|
|-------------------------------------------------------------------------|
|-------------------------------------------------------------------------|
|-------------------------------------------------------------------------|
|-2-5-7-8-7-5-2-5-7-8-7-5-2-5-7-8-7-5---(Jump right into bridge)----------|
|-0-3-5-6-5-3-0-3-5-6-5-3-0-3-5-6-5-3-------------------------------------|

Play 2wice but on the Third time play the Outro Instead of last section and dont play 
Notes in the Brakets [ ]
|------[0]--------------[0]---------------[0]----------|-----------------|
|------[0]--------------[0]---------------[0]----------|-----------------|
|------------------------------------------------------|-----------------|
|--5-2----8-X-7-X-5--5-2----8-X-7-X-5--5-2---8-X-7-X-5-|-2---------------|
|--5-2----8-X-7-X-5--5-2----8-X-7-X-5--5-2---8-X-7-X-5-|-2-5-7-8-7-5-----|
|--3-0----6-X-5-X-3--3-0----6-X-5-X-3--3-0---6-X-5-X-3-|-0-3-5-6-5-3-----|

Outro
|-------------------------------------------------------------------------|
|-------------------------------------------------------------------------|
|--------------------------------------^----------------------------------|
|--2-----------2-----------2-----------2----------------------------------|
|--2-5-7-8-7-5-2-5-7-8-7-5-2-5-7-8-7-5-2~---------------------------------|
|--0-3-5-6-5-3-0-3-5-6-5-3-0-3-5-6-5-3-0~---------------------------------|

Thats it, It took my awile to Figure this out but if u have windows media player set it 
around Half speed and listen. You Will Hear these Notes.


| ^ Accent Mark
| p  pull-off
| ~  Let Ring
| x  Palm Mute
============================================================================
Tap to rate this tab
# A B C D E F G H I J K L M N O P Q R S T U V W X Y Z