Song name
# A B C D E F G H I J K L M N O P Q R S T U V W X Y Z

Rise Against - Blood To Bleed tab

Email danny_coventry@hotmail.com to rate the tab and give your comments!

Tuning: 1/2 step down tuning
Chord:
E5:133xxx
A5:x133xx
C#5:x577xx
B5:x355xx

[Intro] i'm 200% sure that all is correct!
                                            
d#-------------------------|--------------------|
a#-------------------------|--------------------|
f#-------------------------|--------------------|
c#--7----------------------|---7----------------|
g#--7-7-7-7-7-7-7-7-7-7-7--|---7-7-7-7-3-3-3-3--|
d#--5-5-5-5-5-5-5-5-5-5-5--|---5-5-5-5-1-1-1-1--|
pm    ........................   ...............|

d#-------------------------|--------------------|
a#-------------------------|--------------------|
f#-------------------------|--------------------|
c#--7----------------------|---3-3-5-5-7-7-7-7--|
g#--7-7-7-7-7-7-7-7-7-7-7--|---3-3-5-5-7-5-5-5--|
d#--5-5-5-5-5-5-5-5-5-5-5--|---1-1-3-3-5-5-5-5--|
pm    ...................|




[verse]

Tap to rate this tab
 
# A B C D E F G H I J K L M N O P Q R S T U V W X Y Z