Song name
# A B C D E F G H I J K L M N O P Q R S T U V W X Y Z

Rise Against - Dancing For Rain tab

-------------------------------------------------------------------------------
			     Dancing For Rain - Rise Against
-------------------------------------------------------------------------------
Tabbed by: 949GuitarDude
Email: rob@degreedmusicians.com

Tuning: Eb, Ab, Db, Gb, Bb, Eb


Intro
       Ebm                             Bb
e|--2--3-------3-----3-----3---2---2-----2-----2-----2-----2---------------|
B|--------0------0-----0-----0---0---0-----3-----3-----3-----3-0-1---------|
G|-------------------------------------------------------------------------|
D|----------2------2-----2-------------------------------------------------|
A|-------------------------------------2-----2-----2-----2-----------------|
E|-----0-------------------------------------------------------------------|

    Db                            Cb  
e|----5-----5-----5-----5----3-2--0-2-3--------------------------------------|
B|--------------------------------1---1--------------------------------------|
G|------7-----7-----7-----7-------0---0--------------------------------------|
D|--7-----7-----7-----7------------------------------------------------------|
A|---------------------------------------------------------------------------|
E|---------------------------------------------------------------------------|

Verse
e|---------------------------------------------------------------------------|
B|---------------------------------------------------------------------------|
G|--9-10-12--7--5--7------9--------------------------------------------------|
D|--9-10-12--7--5--7------9--------------------------------------------------|
A|--7-9--10--5--3--5------7--------------------------------------------------|
E|------------------------0--------------------------------------------------|

Chorus
e|---3-2---------------------------------------------------------------------|
B|-------3-------------------------------------------------------------------|
G|---------------5-7---------------------------------------------------------|
D|---------2--5--5-7---------------------------------------------------------|
A|---------2--5--3-5---------------------------------------------------------|
E|---------0--3--------------------------------------------------------------|

Bridge
e|---------------------------------------------------------------------------|
B|---------------------------------------------------------------------------|
G|---9--4--7--5--------------------------------------------------------------|
D|---9--4--7--5--------------------------------------------------------------|
A|---7--2--5--3--------------------------------------------------------------|
E|---------------------------------------------------------------------------|

Outro
e|---------------------------------------------------------------------------|
B|---------------------------------------------------------------------------|
G|---5-----7-----------------------------------------------------------------|
D|---5--5--7-----------2-----------------------------------------------------|
A|---3--5--5-----------2-----------------------------------------------------|
E|------3--------------0-----------------------------------------------------|


| /  slide up
| \  slide down
| h  hammer-on
| p  pull-off
| ~  vibrato
| +  harmonic
| x  Mute note
===============================================================================
Tap to rate this tab
# A B C D E F G H I J K L M N O P Q R S T U V W X Y Z