Song name
# A B C D E F G H I J K L M N O P Q R S T U V W X Y Z

Rise Against - Life Less Frightening tab

Rise Against - A Life Less Frightening

Tabbed by: Savas Varadas (samhain_138@hotmail.com)

Tuning: Standard ( E A D G B E)

Follow along with the song for the rythmn

Intro
E|----------------------------------------------||-------------------||
B|----------------------------------------------||.------------------||
G|-9-8-9-8-9-8-9-8--(repeat many times)---------||-8-8-8-6/8/9--8/9/-||
D|-9-9-9-9-9-9-9-9------------------------------||-------------------||
A|----------------------------------------------||.6-6-6-4/6/7--6/7/-||
E|------------------------------------pick slide||-------------------||

E|-------------------------------------------------------------------||
B|-------------------------------------------------------------------||
G|-11---8/9/11--4--6---8/9/11--4/6\3---8/9/11--4--6---8-8-8--6/8/9---||
D|-------------------------------------------------------------------||
A|-9----6/7/9---2--4---6/7/9---2/4\1---6/7/9---2--4---6-6-6--4/6/7---||
E|-------------------------------------------------------------------||

E|-------------------------------------------||
B|-------------------------------------------||
G|-8/9/11------------------------------------||
D|--------(repeat once more)--6--------------||
A|-6/7/9----------------------6--------------||
E|----------------------------4--------------||

Verse                    PM
E|-------------------------------------------------------------------||
B|-------------------------------------------------------------------||
G|------------8---9-11-----------------------------------------------||
D|------------8---9-11-------------------------9-9-9-8-8-------------||
A|------------6---7-9----11-11-11-9-11-11-11-9-----------11-11-9-----||
E|-pick slide--------------------------------------------------------||

E|-------------------------------------------------------------------||
B|-------------------------------------------------------------------||
G|-------------------------------------------------------------------||
D|-----------------------9-9-9-8-8-11-11-----------------------------||
A|-11-11-11-9-11-11-11-9-----------------9--11-11-11-9-11-11-11-9----||
E|-------------------------------------------------------------------||
              end PM
E|-------------------------------------------------------------------||
B|-------------------------------------------------------------------||
G|--------------------8--9-11----------------------------------------||
D|-9-9-9-8-8----------8--9-11----------------------------------------||
A|-----------11-11-9--6--7-9-----------------------------------------||
E|-------------------------------------------------------------------||

Chorus
E|-------------------------------------------------------------------||
B|-------------------------------------------------------------------||
G|-------4-----------4--8\6/8/9\8------------------------------------||
D|-6--2--4--4--6--2--4------------(repeat)-6-------------------------||
A|-6--2--2--4--6--2--2--6\4/6/7\6----------6-------------------------||
E|-4--0-----2--4--0------------------------4-------------------------||

Verse                    PM
E|-------------------------------------------------------------------||
B|-------------------------------------------------------------------||
G|------------8---9-11-----------------------------------------------||
D|------------8---9-11-------------------------9-9-9-8-8-------------||
A|------------6---7-9----11-11-11-9-11-11-11-9-----------11-11-9-----||
E|-pick slide--------------------------------------------------------||

E|-------------------------------------------------------------------||
B|-------------------------------------------------------------------||
G|-------------------------------------------------------------------||
D|-----------------------9-9-9-8-8-11-11-----------------------------||
A|-11-11-11-9-11-11-11-9-----------------9--11-11-11-9-11-11-11-9----||
E|-------------------------------------------------------------------||
              end PM
E|-------------------------------------------------------------------||
B|-------------------------------------------------------------------||
G|--------------------8--9-11----------------------------------------||
D|-9-9-9-8-8----------8--9-11----------------------------------------||
A|-----------11-11-9--6--7-9-----------------------------------------||
E|-------------------------------------------------------------------||

Chorus
E|-------------------------------------------------------------------||
B|-------------------------------------------------------------------||
G|-------4-----------4--8\6/8/9\8------------------------------------||
D|-6--2--4--4--6--2--4------------(repeat)-6-------------------------||
A|-6--2--2--4--6--2--2--6\4/6/7\6----------6-------------------------||
E|-4--0-----2--4--0------------------------4-------------------------||

Bridge         volume swell
E|-------------------------------------------------------------------||
B|-------------------------------------------------------------------||
G|----------------------------------------------------------6--------||
D|-(bass part)-------6------------------------------6-------6------6-||
A|-------------------6------------------------------6-------4------6-||
E|-------------------4-------(9)(9)(9)(9)(9)(9)(9)--4-------4------4-||

E|-------------------------------------------------------------------||
B|-------------------------------------------------------------------||
G|--6----------------------------------------------------------------||
D|--6---6---9-6---6---9-8-9-11--11---9-8-9-11----8-9---6---9--6---6--||
A|--4----------------------------------------------------------------||
E|--4---4---7-4---4---7-6-7-9---9----7-6-7-9-----6-7---4---7--4---4--||

E|-----------------------------||
B|-----------------------------||
G|----------------------9------||
D|--9-8-9---11--9-8-9---9------||
A|----------------------7------||
E|--7-6-7---9---7-6-7---7------||

Faintly over last half of chorus
E|-------------------------------------------------------------------||
B|-------------------------------------------------------------------||
G|-8---6---9-8-----------------------8\6/8/9\8-----------------------||
D|--------------(repeat four times)-------------6--------------------||
A|-6---4---7-6-----------------------6\4/6/7\6--6--------------------||
E|----------------------------------------------4--------------------||
Tap to rate this tab
# A B C D E F G H I J K L M N O P Q R S T U V W X Y Z