Song name
# A B C D E F G H I J K L M N O P Q R S T U V W X Y Z

Rise Against - First Drop tab

Tabbed by Jamie Harris
Tuning 1/2 step down

Intro/chorus
Guitar 1
---------------------------------|
---------------------------------|
-2-22-22-5-55-55-----------------|
-2-22-22-5-55-55-5-55-55-3-33-33-|
-0-00-00-3-33-33-5-55-55-3-33-33-|
-----------------3-33-33-1-11-11-| x 4

Guitar 2
---------------------------------|
---------------------------------|
-5-55-55-9-99-99-----------------|
-x-xx-xx-x-xx-xx-9-99-99-7-77-77-|
-3-33-33-5-55-55-x-xx-xx-x-xx-xx-|
-----------------7-77-77-5-55-55-| x 2

--------------------------------------------|
--------------------------------------------|
-9-99-99-14-1414-1414-10-1010-1010-10-12-10-|
-x-xx-xx-x--x-x--x-x--x--x-x--x-x--x--x--x--|
-7-77-77-12-1212-1212-8--8-8--8-8--8--10-8--|
--------------------------------------------|

---------------------------------------|
---------------------------------------|
-9-99-99-14-1414-1414-10-1010-1010-17~-|
-x-xx-xx-x--x-x--x-x--x--x-x--x-x--x---|
-7-77-77-12-1212-1212-8--8-8--8-8--15~-|
---------------------------------------|

Verse
Both guitars (palm muted)
------------------------------|
------------------------------|
-------------------------55-5-|
-7-7-7777-55-5--7-7-7777-55-5-|
-7-7-7777-55-5--7-7-7777-33-3-|
-5-5-5555-33-3--5-5-5555------|

------------------------------|
------------------------------|
-------------------------55-5-|
-7-7-7777-55-5--3-3-3333-55-5-|
-7-7-7777-55-5--3-3-3333-33-3-|
-5-5-5555-33-3--1-1-1111------| x 2

2nd part of Verse
Guitar 1 do same as above just un-muted

Guitar 2
--------------------------------|
--------------------------------|
-9-9-9999-77-7-9-9-9999-1212-10-|
-x-x-xxxx-xx-x-x-x-xxxx-x-x--x--|
-7-7-7777-55-5-7-7-7777-1010-8--|
--------------------------------|

--------------------------------------|
--------------------------------------|
-9-9-9999-77-7-14-14-14141414-1212-12-|
-x-x-xxxx-xx-x-x--x--x-x-x-x--x-x--x--|
-7-7-7777-55-5-12-12-12121212-1010-10-|
--------------------------------------| x2
               ^^^^^^^^^^^^^^^^^^^^^^^
               (miss this part 2nd time)

both guitars Palm mute getting louder
---------------------------------|
---------------------------------|
---------------------------------|
-3-3-3-3-3-3-3-3-5-5-5-5-5-5-5-5-|
-3-3-3-3-3-3-3-3-5-5-5-5-5-5-5-5-|
-1-1-1-1-1-1-1-1-3-3-3-3-3-3-3-3-|

Chorus
Guitar 1 same as Intro.
Guitar 2 play 1st half of intro x 4

Verse x 1
Chorus x 1

Bridge
---------|
---------|
---------|
-2-22-22-|
-2-22-22-|
-0-00-00-| x 4 just after chorus

Both Guitars (palm muted)
---------------------------------|
---------------------------------|
-2-2-2-2-2-2-2-2-5-5-5-5-5-5-5-5-|
-2-2-2-2-2-2-2-2-5-5-5-5-5-5-5-5-|
-0-0-0-0-0-0-0-0-3-3-3-3-3-3-3-3-|
---------------------------------|

---------------------------------|
---------------------------------|
-2-2-2-2-2-2-2-2-5-5-5-5---------|
-2-2-2-2-2-2-2-2-5-5-5-5-5-5-5-5-|
-0-0-0-0-0-0-0-0-3-3-3-3-5-5-5-5-|
-------------------------3-3-3-3-|

Top part again then

Guitar 1 heavy
---------------------------------|
---------------------------------|
-------------------------5-5-5-5-|
-5-5-5-5-5-5-5-5-3-3-3-3-5-5-5-5-|
-5-5-5-5-5-5-5-5-3-3-3-3-3-3-3-3-|
-3-3-3-3-3-3-3-3-1-1-1-1---------|

Guitar 2
---------------------------------|
---------------------------------|
-----4-4-5-5-7-7---------5-5-5-5-|
-5-5-x-x-x-x-x-x-3-3-3-3-5-5-5-5-|
-x-x-2-2-3-3-5-5-3-3-3-3-3-3-3-3-|
-3-3-------------1-1-1-1---------|

Then repeat the bridge part x 2

Then chorus

End on
---------------------|
---------------------|
-------------------2-|
-3-33-33-3-33-33-5-2-|
-3-33-33-3-33-33-5-0-|
-1-11-11-1-11-11-3---|
Tap to rate this tab
# A B C D E F G H I J K L M N O P Q R S T U V W X Y Z