Song name
# A B C D E F G H I J K L M N O P Q R S T U V W X Y Z

Rise Against - To The Core tab

                             RISE AGAINST
                             TO THE CORE


DROP D TUNING
DADGBe


intro
---------------------------------------------------------------------|
---------------------------------------------------------------------|
---------------------------------------------------------------------|
--6h8-8-8/9-9-9/8-6h8-8-8/9-9-9/8-6h8-8-8/9-9-9/8-6h8-8-8/9-9-9/8----|
--6h8-8-8/9-9-9/8-6h8-8-8/9-9-9/8-6h8-8-8/9-9-9/8-6h8-8-8/9-9-9/8----|
--6h8-8-8/9-9-9/8-6h8-8-8/9-9-9/8-6h8-8-8/9-9-9/8-6h8-8-8/9-9-9/8----|


----------------------------------------------------------------------------|
----------------------------------------------------------------------------|
----------------------------------------------------------------------------|
----------------------------------------------------------------------------|
--1-1-1-1-1-1-1-2-2-2-2-2-2-2-1-1-1-1-1-1-1-4-2-1-1-1-1-1-1-1-2-2-2-2-2-2-2-|
--1-1-1-1-1-1-1-2-2-2-2-2-2-2-1-1-1-1-1-1-1-4-2-1-1-1-1-1-1-1-2-2-2-2-2-2-2-|

-------------------|
-------------------|
-------------------|
-------------------|
-1-1-1-1-1-1-1-4-2-|
-1-1-1-1-1-1-1-4-2-|

-------------------------------------------------------------|
-------------------------------------------------------------|
-------------------------------------------------------------|
--6h8-8-8/9-9/8-6h8-8-8/9-9/8-6h8-8-8/9-9/8-6h8-8-8/9-9/8----|
--6h8-8-8/9-9/8-6h8-8-8/9-9/8-6h8-8-8/9-9/8-6h8-8-8/9-9/8----|
--6h8-8-8/9-9/8-6h8-8-8/9-9/8-6h8-8-8/9-9/8-6h8-8-8/9-9/8----|

----------------------------------------------------------------------------|
----------------------------------------------------------------------------|
----------------------------------------------------------------------------|
----------------------------------------------------------------------------|
--1-1-1-1-1-1-1-2-2-2-2-2-2-2-1-1-1-1-1-1-1-4-2-1-1-1-1-1-1-1-2-2-2-2-2-2-2-|
--1-1-1-1-1-1-1-2-2-2-2-2-2-2-1-1-1-1-1-1-1-4-2-1-1-1-1-1-1-1-2-2-2-2-2-2-2-|

-------------------------|
-------------------------|
-------------------------|
-------------------6~~~--|
-1-1-1-1-1-1-1-4-2-6~~~--|
-1-1-1-1-1-1-1-4-2-6~~~--|

-------------------------------------------------|
-------------------------------------------------|
----------------4-4-4-4--------------------------|
--2-2-2-2-2-2-2-4-4-4-4-4-4-4-4-6-6-6-6-6-6-6-6--|
--2-2-2-2-2-2-2-2-2-2-2-4-4-4-4-6-6-6-6-6-6-6-6--|
--2-2-2-2-2-2-2---------4-4-4-4-6-6-6-6-6-6-6-6--|
repeat this a few times then end on
this
-----------------------------------|
-----------------------------------|
---------------4-4-4-4-------------|
-2-2-2-2-2-2-2-4-4-4-4-4-6~~-------|
-2-2-2-2-2-2-2-2-2-2-2-4-6~~-------|
-2-2-2-2-2-2-2---------4-6~~-------|

---------------------------------------------------------------------|
---------------------------------------------------------------------|
---------------------------------------------------------------------|
--6h8-8-8/9-9-9/8-6h8-8-8/9-9-9/8-6h8-8-8/9-9-9/8-6h8-8-8/9-9-9/8----|
--6h8-8-8/9-9-9/8-6h8-8-8/9-9-9/8-6h8-8-8/9-9-9/8-6h8-8-8/9-9-9/8----|
--6h8-8-8/9-9-9/8-6h8-8-8/9-9-9/8-6h8-8-8/9-9-9/8-6h8-8-8/9-9-9/8----|

end on
------|
------|
------|
--6~--|
--6~--|
--6~--|

simple song
peace
Tap to rate this tab
 
# A B C D E F G H I J K L M N O P Q R S T U V W X Y Z