Song name
# A B C D E F G H I J K L M N O P Q R S T U V W X Y Z

Rise Against - To Them These Streets Belong tab

Help us improve GuitareTab! Take a short survey!
~Intro~
e|-------------------------------------------------------------|
b|-------------------------------------------------------------|
g|-------------------------------------------------------------|
d|---------6-----8-------4------6------------------------------|x2
A|--4------4-----6-------2------4------4-----------------------|
E|--2----------------------------------2-----------------------|

~Verse~
e|-------------------------------------------------------------|
b|-------------------------------------------------------------|
g|----3---3---3------------------------------------------------|
d|--3-1-3-1-3-1---4-4-4-4---6-6--------------------------------|x4
A|--1---1---1-----2-2-2-2-4-4-4--------------------------------|
E|------------------------2------------------------------------|

~Chorus~
e|----------------------------|-------------------------------------|
b|----------------------------|-------------------------------------|
g|----------------------------|-------------------------------------|
d|--8-8-8-8-8--pause-8--6--x1-|4-4-4-4-4-4-4-4-6-6-6-6-6-6-6-6--x2--|
A|--6-6-6-6-6--pause-6--4-----|2-2-2-2-2-2-2-2-4-4-4-4-4-4-4-4------|
E|----------------------------|-------------------------------------|

e|-------------------------------------------------------------|
b|-------------------------------------------------------------|
g|-------------------------------------------------------------|
d|--8-8-8-8-6-6-6-6-4-4-4-4-4-4-4-4-4-4-4-4-4-4-4-4--6-6-6-6-6-|
A|--6-6-6-6-4-4-4-4-2-2-2-2-2-2-2-2-2-2-2-2-2-2-2-2--4-4-4-4-4-|
E|-------------------------------------------------------------|

e|-------------------------------------------------------------|
b|-------------------------------------------------------------|
g|-------------------------------------------------------------|
d|--6-6-6--8-8-8-8-8-8-8-8-8-8-8-8-8-8-8-8---------------------|
A|--4-4-4--6-6-6-6-6-6-6-6-6-6-6-6-6-6-6-6---------------------|
E|-------------------------------------------------------------|


~Verse~
e|-------------------------------------------------------------|
b|-------------------------------------------------------------|
g|----3---3---3------------------------------------------------|
d|--3-1-3-1-3-1---4-4-4-4---6-6--------------------------------|x4
A|--1---1---1-----2-2-2-2-4-4-4--------------------------------|
E|------------------------2------------------------------------|

~Chorus~
e|----------------------------|-------------------------------------|
b|----------------------------|-------------------------------------|
g|----------------------------|-------------------------------------|
d|--8-8-8-8-8--pause-8--6--x1-|4-4-4-4-4-4-4-4-6-6-6-6-6-6-6-6--x2--|
A|--6-6-6-6-6--pause-6--4-----|2-2-2-2-2-2-2-2-4-4-4-4-4-4-4-4------|
E|----------------------------|-------------------------------------|

e|-------------------------------------------------------------|
b|-------------------------------------------------------------|
g|-------------------------------------------------------------|
d|--8-8-8-8-6-6-6-6-4-4-4-4-4-4-4-4-4-4-4-4-4-4-4-4--6-6-6-6-6-|
A|--6-6-6-6-4-4-4-4-2-2-2-2-2-2-2-2-2-2-2-2-2-2-2-2--4-4-4-4-4-|
E|-------------------------------------------------------------|

e|-------------------------------------------------------------|
b|-------------------------------------------------------------|
g|-------------------------------------------------------------|
d|--6-6-6--8-8-8-8-8-8-8-8-8-8-8-8-8-8-8-8---------------------|
A|--4-4-4--6-6-6-6-6-6-6-6-6-6-6-6-6-6-6-6---------------------|
E|-------------------------------------------------------------|

~Outro 1~
e|-------------------------------------------------------------|
b|-------------------------------------------------------------|
g|-------------------------------------------------------------|
d|---------6-----8-------4------6------------------------------|x2
A|--4------4-----6-------2------4------4-----------------------|
E|--2----------------------------------2-----------------------|

~Outro 2~ (Play All Though Twice)
e|-------------------------------------------------------------|
b|-------------------------------------------------------------|
g|-------------------------------------------------------------|
d|-------------------6-6-6-6-6-6-6-6--8-8-8-8-8-8-8-8-8-8-8-8--|
A|--4-4-4-4-4-4-4-4--4-4-4-4-4-4-4-4--6-6-6-6-6-6-6-6-6-6-6-6--|
E|--2-2-2-2-2-2-2-2--------------------------------------------|

e|-------------------------------------------------------------|
b|-------------------------------------------------------------|
g|-------------------------------------------------------------|
d|--8-8-8-8--4-4-4-4-4-4-4-4--6-6-6-6-6-6-6-6------------------|
A|--6-6-6-6--2-2-2-2-2-2-2-2--4-4-4-4-4-4-4-4--4-4-4-4-4-4-4-4-|
E|---------------------------------------------2-2-2-2-2-2-2-2-|

e|-------------------------------------------------------------|
b|-------------------------------------------------------------|
g|-------------------------------------------------------------|
d|-------------------------------------------------------------|
A|--4-4-4-4-4-4-4-4--------------------------------------------|
E|--2-2-2-2-2-2-2-2--------------------------------------------|
Related for To Them These Streets Belong tab