Song name
# A B C D E F G H I J K L M N O P Q R S T U V W X Y Z

Rise Against - Chamber The Cartridge tab

Rise Against - Chamber the Cartridge
====================================================================================================
Tabbed by: Juho Kilkki juho.kilkk@gmail.com 
Tuning: Half step down (Eb Ab Db Gb Bb eb)
~ = Let Ring
/ = Slide
/\ = Pick slide

INTRO                                                            2x
eb|----------------------------------------------------------------|
Bb|----------------------------------------------------------------|
Gb|6~----8-9~----8-9-119-8-9-8-6-4-6~----8-9~----8-9-119-6-13119-8-|
Db|----------------------------------------------------------------|
Ab|4~----6-7~----6-7-9-7-6-7-6-4-2-4~----6-7~----6-7-9-7-6-119-7-6-|
Eb|----------------------------------------------------------------|
   1 2 3 4 1 2 3 4 1 2 3 4 1 2 3 4 1 2 3 4 1 2 3 4 1 2 3 4 1 2 3 4

FILL      
eb|---------------|
Bb|---------------|
Gb|6~----pickslide|
Db|--------/\/\/\/|
Ab|4~------/\/\/\/|
Eb|--------/\/\/\/|
   1 2 3 4 1 2 3 4 

VERSE                            4x
eb|--------------------------------|
Bb|--------------------------------|
Gb|6-66-6666-66-6669-99-999--------|
Db|6-66-6666-66-6669-99-9999-99-999|
Ab|4-44-4444-44-4447-77-7779-99-999|
Eb|------------------------7-77-777|
   1   2   3   4   1   2   3   4 

Down beyond these city streets through gutters filled with black debris, 
in alleys void of any light where nameless things live out of sight.
Down through the scrapers of the sky past neon words glowing all night 
echoes my name between each car: "Are you happy where you are" 

PRE CHORUS       3x                                3x
eb|----------------|----------------|----------------|----------------|
Bb|----------------|----------------|----------------|----------------|
Gb|----------------|----------------|----------------|6-----------4---|
Db|----------------|----------------|----------------|6---7---2---4---|
Ab|----------------|----------------|----------------|4---7---2---2---|
Eb|4-44-45-4-44-45-|2~--------------|4-44-45-4-44-45-|----5---0-------|
   1   2   3   4    1   2   3   4    1   2   3   4    1   2   3   4   

Blind to this impending fate 
we let the world carry our weight.
It's back breaks with every mile
but we all live in denial

CHORUS        
Guitar 1                                                         4x
eb|----------------------------------------------------------------|
Bb|----------------------------------------------------------------|
Gb|6-66-6666-66-6662-22-2222-22-222----------------4-44-4444-44-444|
Db|6-66-6666-66-6662-22-2222-22-2222-22-2222-22-2222-44-4444-44-444|
Ab|4-44-4444-44-4440-00-0000-00-0002-22-2222-22-2222-22-2222-22-222|
Eb|--------------------------------0-00-0000-00-000----------------|
   1   2   3   4   1   2   3   4   1   2   3   4   1   2   3   4

Guitar 2                                                         
eb|-----------------------------------------------------------------|
Bb|-----------------------------------------------------------------|
Gb|13--1313--13131313--1313--13131314--1414--14141414--1414--1414/16|
Db|-----------------------------------------------------------------|
Ab|11--1111--11111111--1111--11111112--1212--12121212--1212--1212/14|
Eb|-----------------------------------------------------------------|
   1       2       3       4       1       2       3       4        
                                                                 4x
eb|----------------------------------------------------------------|
Bb|----------------------------------------------------------------|
Gb|13--1313--13131313--1314--14131311--1111--11111111--1111--111111|
Db|----------------------------------------------------------------|
Ab|11--1111--11111111--1112--1211119---9-9---9-9-9-9---9-9---9-9-9-|
Eb|----------------------------------------------------------------|
   1       2       3       4       1       2       3       4       

Can we be saved? Has the damage all been done?
Is it too late to reverse what we've become?
A lesson to learn at a crucial point in time
What's mine was always yours and yours is mine.

FILL 2    
eb|---------------|
Bb|---------------|
Gb|6~--6~--18~-18~|
Db|6~--6~---------|
Ab|4~--4~--16~-16~|
Eb|---------------|
   1 2 3 4 1 2 3 4 

VERSE
And so we carry on each day, as if our lifes are not so grey,
while every breath that we take we only suffocate.
Brush past a myriad of scenes a homeless vet crashed on wall street,
A single mom of three, a TV personality!

PRE CHORUS

CHORUS

eb|--------------------------------|
Bb|--------------------------------|
Gb|6~------------------------------|
Db|6~------------------------------|
Ab|4~------------------------------|
Eb|--------------------------------|
   1 2 3 4 1 2 3 4 1 2 3 4 1 2 3 4

BRIDGE
eb|------------------------------------|
Bb|------------------------------------|
Gb|6-6666669999------------999911111111|
Db|6-666666999999994-444444999911111111|
Ab|4-444444777799994-44444477779-9-9-9-|
Eb|------------77772-222222------------|
   1 2 3 4 1 2 3 4 1 2 3 4 1 2 3   4   

Save us, from what we have become tonight.                                    
                                                 3x
eb|------------------------------------------------|
Bb|------------------------------------------------|
Gb|6-6666669999------------9---8-------11--9---8---|
Db|6-666666999999994-4444449---8---9---11--9---8---|
Ab|4-444444777799994-4444447---6---9---9---7---6---|
Eb|------------77772-222222--------7---------------|
   1 2 3 4 1 2 3 4 1 2 3 4 1     2     3     4       

Eyes, glazed with distrust, No sense of wrong or right

INTRO played once

CHORUS played 3 times
Tap to rate this tab
# A B C D E F G H I J K L M N O P Q R S T U V W X Y Z