Song name
# A B C D E F G H I J K L M N O P Q R S T U V W X Y Z

Rise Against - Good Left Undone tab

Help us improve GuitareTab! Take a short survey!
Ok so i am a killer Rise Against fan and i thought that this site
needed a good tab for the new album....so here is The Good Left Undone
by Rise Against on The Sufferer and the Witness.  Hope its what you
are looking for.

Guitar 1 - Left Pan
Guitar 2 - Right Pan
Guitar 3 - Overdub (only when shown)

KEY|
\= slide down
/= slide up
* = palm mute
s = slide


INTRO - Downstrokes
Guitar 1
E|----------------------------------------------------------------|
A|----------------------------------------------------------------|
D|--6-6-6-6-6-6-6---6-6-6-6-6-6-6---6-6-6-6-6-6-6---6-6-6-6-6-6-6-|
G|--x-x-x-x-x-x-x---x-x-x-x-x-x-x---x-x-x-x-x-x-x---x-x-x-x-x-x-x-|
B|--4-4-4-4-4-4-4---4-4-4-4-4-4-4---4-4-4-4-4-4-4---4-4-4-4-4-4-4-|
E|----------------------------------------------------------------|
				    ^Guitar 2 comes in.

Guitar 2
E|------------------------------------------------------------------|
A|------------------------------------------------------------------|
D|--13-13-13-13-13-13-13---13-13-13-13-13-13-13---------------------|
G|--xx-xx-xx-xx-xx-xx-xx---xx-xx-xx-xx-xx-xx-xx---------------------|
B|--11-11-11-11-11-11-11---11-11-11-11-11-11-11---------------------|
E|------------------------------------------------------------------|

VERSE- PLAYED TWICE, FOLLOWED BY AN IMMEDIATE PICKSLIDE INTO PRE-CHORUS
Guitar 1
E|-------------------------------------------------------------------------|
A|-------------------------------------------------------------------------|
D|-66666666666666---66666666\444---4444444---8888888---6666666/8-8-9-8-8-8-|
G|-xxxxxxxxxxxxxx---xxxxxxxx\xxx---xxxxxxx---xxxxxxx---xxxxxxx/8-8-9-8-8-8-|
B|-44444444444444---44444444\222---2222222---6666666---4444444/6-6-7\6-6-6-|
E|-------------------------------------------------------------------------|

Guitar 2
E|-------------------------------------------------------------------------|
A|-------------------------------------------------------------------------|
D|-66666666666666------------------9999999-------------1111111-8-8-9-8-8-8-|
G|-66666666666666---777777777777---9999999---9999999---1111111-8-8-9-8-8-8-|
B|-44444444444444---777777777777---7777777---9999999---9999999-6-6-7\6-6-6-|
E|------------------555555555555-------------7777777-----------------------|
   *************    ***********    ******    *******   ******^those are power chords on the 9th fret.

PRE-CHORUS PART ONE
Guitar 1
E|-------------------------------------------------------------------|
A|-------------------------------------------------------------------|
D|-6-6-6-6-6-6-6-6-6-6-6-6-6-6-6-6---------------------------4-4-4-4-|
G|-6-6-6-6-6-6-6-6-6-6-6-6-6-6-6-6---7-7-7-7-6-6-6-6-4-4-4-4-4-4-4-4-|
B|-4-4-4-4-4-4-4-4-4-4-4-4-4-4-4-4---7-7-7-7-6-6-6-6-4-4-4-4-2-2-2-2-|
E|-----------------------------------5-5-5-5-4-4-4-4-2-2-2-2---------|

GUITAR 2
E|-------------------------------------------------------------------|
A|-------------------------------------------------------------------|
D|-6-6-6-6-6-6-6-6-6-6-6-6-6-6-6-6---------------------------4-4-4-4-|
G|-6-6-6-6-6-6-6-6-6-6-6-6-6-6-6-6---7-7-7-7-6-6-6-6-4-4-4-4-4-4-4-4-|
B|-4-4-4-4-4-4-4-4-4-4-4-4-4-4-4-4---7-7-7-7-6-6-6-6-4-4-4-4-2-2-2-2-|
E|-----------------------------------5-5-5-5-4-4-4-4-2-2-2-2---------|

GUITAR 3
E|-------------------------------------------------------------------|
A|-------------------------------------------------------------------|
D|-6---------------------------------------------------------4-4-4-4-|
G|-6---------------------------------7-7-7-7-6-6-6-6-4-4-4-4-4-4-4-4-|
B|-4----7p6-7p6--7p6-4--4-4-4--------7-7-7-7-6-6-6-6-4-4-4-4-2-2-2-2-|
E|-----------------------------------5-5-5-5-4-4-4-4-2-2-2-2---------|

PRE-CHORUS PART TWO
Guitar 1
E|-------------------------------------------------------------------|
A|-------------------------------------------------------------------|
D|-6-6-6-6-6-6-6-6-6-6-6-6-6-6-6-6-----------------------------------|
G|-6-6-6-6-6-6-6-6-6-6-6-6-6-6-6-6---7-7-7-7-6-6-6-6-4-4-4-4-4-4-4-4-|
B|-4-4-4-4-4-4-4-4-4-4-4-4-4-4-4-4---7-7-7-7-6-6-6-6-4-4-4-4-4-4-4-4-|
E|-----------------------------------5-5-5-5-4-4-4-4-2-2-2-2-2-2-2-2-|

Guitar 2
E|-------------------------------------------------------------------|
A|-------------------------------------------------------------------|
D|-6-6-6-6-6-6-6-6-6-6-6-6-6-6-6-6-----------------------------------|
G|-6-6-6-6-6-6-6-6-6-6-6-6-6-6-6-6---7-7-7-7-6-6-6-6-4-4-4-4-4-4-4-4-|
B|-4-4-4-4-4-4-4-4-4-4-4-4-4-4-4-4---7-7-7-7-6-6-6-6-4-4-4-4-4-4-4-4-|
E|-----------------------------------5-5-5-5-4-4-4-4-2-2-2-2-2-2-2-2-|

Guitar 3
E|-------------------------------------------------------------------|
A|-------------------------------------------------------------------|
D|-6-----------------------------------------------------------------|
G|-6---------------------------------7-7-7-7-6-6-6-6-4-4-4-4-4-4-4-4-|
B|-4----7p6-7p6---9--7--6--4-4-4-----7-7-7-7-6-6-6-6-4-4-4-4-4-4-4-4-|
E|-----------------------------------5-5-5-5-4-4-4-4-2-2-2-2-2-2-2-2-|

PRE-CHORUS PART THREE
Guitar 1
E|----------------------------------------------------------------|
A|----------------------------------------------------------------|
D|----------------------------------------------------------------|
G|-2--2-2-2-2-2---4--4-4-4-4-4-4-4---7-7-7-7-6-6-6-6-4------------|
B|-2--2-2-2-2-2---4--4-4-4-4-4-4-4---7-7-7-7-6-6-6-6-4------------|
E|-0--0-0-0-0-0---2--2-2-2-2-2-2-2---5-5-5-5-4-4-4-4-2------------|

Guitar 2
E|----------------------------------------------------------------|
A|----------------------------------------------------------------|
D|----------------------------------------------------------------|
G|-2--2-2-2-2-2---4--4-4-4-4-4-4-4---7-7-7-7-6-6-6-6-4------------|
B|-2--2-2-2-2-2---4--4-4-4-4-4-4-4---7-7-7-7-6-6-6-6-4------------|
E|-0--0-0-0-0-0---2--2-2-2-2-2-2-2---5-5-5-5-4-4-4-4-2------------|

CHORUS- PLAYED TWICE
Guitar 1
E|-----------------------------------------------------------------------|
A|-----------------------------------------------------------------------|
D|-6-6-6-6-6-6-6-6---------------------4-4-4-4-4-4-4-4-------------------|
G|-6-6-6-6-6-6-6-6---2-2-2-2-2-2-2-2---4-4-4-4-4-4-4-4---7-7-7-7-7-7-7-7-|
B|-4-4-4-4-4-4-4-4---2-2-2-2-2-2-2-2---2-2-2-2-2-2-2-2---7-7-7-7-7-7-7-7-|
E|-------------------0-0-0-0-0-0-0-0---------------------5-5-5-5-5-5-5-5-|

Guitar 2
E|-----------------------------------------------------------------------|
A|-----------------------------------------------------------------------|
D|-6-6-6-6-6-6-6-6---------------------4-4-4-4-4-4-4-4-------------------|
G|-6-6-6-6-6-6-6-6---2-2-2-2-2-2-2-2---4-4-4-4-4-4-4-4---7-7-7-7-7-7-7-7-|
B|-4-4-4-4-4-4-4-4---2-2-2-2-2-2-2-2---2-2-2-2-2-2-2-2---7-7-7-7-7-7-7-7-|
E|-------------------0-0-0-0-0-0-0-0---------------------5-5-5-5-5-5-5-5-|

Guitar 3
E|-----------------------------------------------------------------------|
A|--99----99---------99----99----------99----99----------99--------------|
D|-----99----99---------99----99----------99----99----------99-----------|
G|-----------------------------------------------------------------------|
B|-----------------------------------------------------------------------|
E|-----------------------------------------------------------------------|


INTRO - Downstrokes
Guitar 1
E|----------------------------------------------------------------|
A|----------------------------------------------------------------|
D|--6-6-6-6-6-6-6---6-6-6-6-6-6-6---6-6-6-6-6-6-6---6-6-6-6-6-6-6-|
G|--x-x-x-x-x-x-x---x-x-x-x-x-x-x---x-x-x-x-x-x-x---x-x-x-x-x-x-x-|
B|--4-4-4-4-4-4-4---4-4-4-4-4-4-4---4-4-4-4-4-4-4---4-4-4-4-4-4-4-|
E|----------------------------------------------------------------|
				    ^Guitar 2 comes in.

Guitar 2
E|------------------------------------------------------------------|
A|------------------------------------------------------------------|
D|--13-13-13-13-13-13-13---16-16-16-16-16-16-16---------------------|
G|--xx-xx-xx-xx-xx-xx-xx---xx-xx-xx-xx-xx-xx-xx---------------------|
B|--11-11-11-11-11-11-11---14-14-14-14-14-14-14---------------------|
E|------------------------------------------------------------------|


VERSE- PLAYED TWICE, FOLLOWED BY AN IMMEDIATE PICKSLIDE INTO PRE-CHORUS
Guitar 1
E|-------------------------------------------------------------------------|
A|-------------------------------------------------------------------------|
D|-66666666666666---66666666\444---4444444---8888888---6666666/8-8-9-8-8-8-|
G|-xxxxxxxxxxxxxx---xxxxxxxx\xxx---xxxxxxx---xxxxxxx---xxxxxxx/8-8-9-8-8-8-|
B|-44444444444444---44444444\222---2222222---6666666---4444444/6-6-7\6-6-6-|
E|-------------------------------------------------------------------------|

Guitar 2
E|-------------------------------------------------------------------------|
A|-------------------------------------------------------------------------|
D|-66666666666666------------------9999999-------------1111111-8-8-9-8-8-8-|
G|-66666666666666---777777777777---9999999---9999999---1111111-8-8-9-8-8-8-|
B|-44444444444444---777777777777---7777777---9999999---9999999-6-6-7\6-6-6-|
E|------------------555555555555-------------7777777-----------------------|
   *************    ***********    ******    *******   ******^those are power chords on the 9th fret.

PRE-CHORUS PART ONE
Guitar 1
E|-------------------------------------------------------------------|
A|-------------------------------------------------------------------|
D|-6-6-6-6-6-6-6-6-6-6-6-6-6-6-6-6---------------------------4-4-4-4-|
G|-6-6-6-6-6-6-6-6-6-6-6-6-6-6-6-6---7-7-7-7-6-6-6-6-4-4-4-4-4-4-4-4-|
B|-4-4-4-4-4-4-4-4-4-4-4-4-4-4-4-4---7-7-7-7-6-6-6-6-4-4-4-4-2-2-2-2-|
E|-----------------------------------5-5-5-5-4-4-4-4-2-2-2-2---------|

GUITAR 2
E|-------------------------------------------------------------------|
A|-------------------------------------------------------------------|
D|-6-6-6-6-6-6-6-6-6-6-6-6-6-6-6-6---------------------------4-4-4-4-|
G|-6-6-6-6-6-6-6-6-6-6-6-6-6-6-6-6---7-7-7-7-6-6-6-6-4-4-4-4-4-4-4-4-|
B|-4-4-4-4-4-4-4-4-4-4-4-4-4-4-4-4---7-7-7-7-6-6-6-6-4-4-4-4-2-2-2-2-|
E|-----------------------------------5-5-5-5-4-4-4-4-2-2-2-2---------|

GUITAR 3
E|-------------------------------------------------------------------|
A|-------------------------------------------------------------------|
D|-6---------------------------------------------------------4-4-4-4-|
G|-6---------------------------------7-7-7-7-6-6-6-6-4-4-4-4-4-4-4-4-|
B|-4----7p6-7p6--7p6-4--4-4-4--------7-7-7-7-6-6-6-6-4-4-4-4-2-2-2-2-|
E|-----------------------------------5-5-5-5-4-4-4-4-2-2-2-2---------|

PRE-CHORUS PART TWO
Guitar 1
E|-------------------------------------------------------------------|
A|-------------------------------------------------------------------|
D|-6-6-6-6-6-6-6-6-6-6-6-6-6-6-6-6-----------------------------------|
G|-6-6-6-6-6-6-6-6-6-6-6-6-6-6-6-6---7-7-7-7-6-6-6-6-4-4-4-4-4-4-4-4-|
B|-4-4-4-4-4-4-4-4-4-4-4-4-4-4-4-4---7-7-7-7-6-6-6-6-4-4-4-4-4-4-4-4-|
E|-----------------------------------5-5-5-5-4-4-4-4-2-2-2-2-2-2-2-2-|

Guitar 2
E|-------------------------------------------------------------------|
A|-------------------------------------------------------------------|
D|-6-6-6-6-6-6-6-6-6-6-6-6-6-6-6-6-----------------------------------|
G|-6-6-6-6-6-6-6-6-6-6-6-6-6-6-6-6---7-7-7-7-6-6-6-6-4-4-4-4-4-4-4-4-|
B|-4-4-4-4-4-4-4-4-4-4-4-4-4-4-4-4---7-7-7-7-6-6-6-6-4-4-4-4-4-4-4-4-|
E|-----------------------------------5-5-5-5-4-4-4-4-2-2-2-2-2-2-2-2-|

Guitar 3
E|-------------------------------------------------------------------|
A|-------------------------------------------------------------------|
D|-6-----------------------------------------------------------------|
G|-6---------------------------------7-7-7-7-6-6-6-6-4-4-4-4-4-4-4-4-|
B|-4----7p6-7p6---9--7--6--4-4-4-----7-7-7-7-6-6-6-6-4-4-4-4-4-4-4-4-|
E|-----------------------------------5-5-5-5-4-4-4-4-2-2-2-2-2-2-2-2-|

PRE-CHORUS PART THREE
Guitar 1
E|----------------------------------------------------------------|
A|----------------------------------------------------------------|
D|----------------------------------------------------------------|
G|-2--2-2-2-2-2---4--4-4-4-4-4-4-4---7-7-7-7-6-6-6-6-4------------|
B|-2--2-2-2-2-2---4--4-4-4-4-4-4-4---7-7-7-7-6-6-6-6-4------------|
E|-0--0-0-0-0-0---2--2-2-2-2-2-2-2---5-5-5-5-4-4-4-4-2------------|

Guitar 2
E|----------------------------------------------------------------|
A|----------------------------------------------------------------|
D|----------------------------------------------------------------|
G|-2--2-2-2-2-2---4--4-4-4-4-4-4-4---7-7-7-7-6-6-6-6-4------------|
B|-2--2-2-2-2-2---4--4-4-4-4-4-4-4---7-7-7-7-6-6-6-6-4------------|
E|-0--0-0-0-0-0---2--2-2-2-2-2-2-2---5-5-5-5-4-4-4-4-2------------|


CHORUS- PLAYED TWICE
Guitar 1
E|-----------------------------------------------------------------------|
A|-----------------------------------------------------------------------|
D|-6-6-6-6-6-6-6-6---------------------4-4-4-4-4-4-4-4-------------------|
G|-6-6-6-6-6-6-6-6---2-2-2-2-2-2-2-2---4-4-4-4-4-4-4-4---7-7-7-7-7-7-7-7-|
B|-4-4-4-4-4-4-4-4---2-2-2-2-2-2-2-2---2-2-2-2-2-2-2-2---7-7-7-7-7-7-7-7-|
E|-------------------0-0-0-0-0-0-0-0---------------------5-5-5-5-5-5-5-5-|

Guitar 2
E|-----------------------------------------------------------------------|
A|-----------------------------------------------------------------------|
D|-6-6-6-6-6-6-6-6---------------------4-4-4-4-4-4-4-4-------------------|
G|-6-6-6-6-6-6-6-6---2-2-2-2-2-2-2-2---4-4-4-4-4-4-4-4---7-7-7-7-7-7-7-7-|
B|-4-4-4-4-4-4-4-4---2-2-2-2-2-2-2-2---2-2-2-2-2-2-2-2---7-7-7-7-7-7-7-7-|
E|-------------------0-0-0-0-0-0-0-0---------------------5-5-5-5-5-5-5-5-|

Guitar 3
E|-----------------------------------------------------------------------|
A|--99----99---------99----99----------99----99----------99--------------|
D|-----99----99---------99----99----------99----99----------99-----------|
G|-----------------------------------------------------------------------|
B|-----------------------------------------------------------------------|
E|-----------------------------------------------------------------------|


POST-CHORUS (SOLO)
Guitar 1
E|-----------------------------------------------------------------------|
A|-----------------------------------------------------------------------|
D|-6-6-6-6-6-6-6-6---------------------4-4-4-4-4-4-4-4-------------------|
G|-6-6-6-6-6-6-6-6---2-2-2-2-2-2-2-2---4-4-4-4-4-4-4-4---7-7-7-7-7-7-7-7-|
B|-4-4-4-4-4-4-4-4---2-2-2-2-2-2-2-2---2-2-2-2-2-2-2-2---7-7-7-7-7-7-7-7-|
E|-------------------0-0-0-0-0-0-0-0---------------------5-5-5-5-5-5-5-5-|

Guitar 2
E|-----------------------------------------------------------------------|
A|-----------------------------------------------------------------------|
D|-6-6-6-6-6-6-6-6---------------------4-4-4-4-4-4-4-4-------------------|
G|-6-6-6-6-6-6-6-6---2-2-2-2-2-2-2-2---4-4-4-4-4-4-4-4---7-7-7-7-7-7-7-7-|
B|-4-4-4-4-4-4-4-4---2-2-2-2-2-2-2-2---2-2-2-2-2-2-2-2---7-7-7-7-7-7-7-7-|
E|-------------------0-0-0-0-0-0-0-0---------------------5-5-5-5-5-5-5-5-|

Guitar 3
E|------------------------------------------------------------------------------------|
A|------------------------------------------------------------------------------------|
D|-9-9-9-11-11-11-13-13--13-13-13-14-14-14-16-16\11-11-11-13-13-13-11-11-11s-9s-11s-9-|
G|-x-x-x-x--x--x--xx-xx--xx-xx-xx-xx-xx-xx-xx-xx\x--x--x--xx-xx-xx-x--x--xs--xs-xs--x-|
B|-7-7-7-9--9--9--11-11--11-11-11-12-12-12-14-14\9--9--9--11-11-11-9--9--9s--7s-9s--7-|
E|------------------------------------------------------------------------------------|

Guitar 1
E|-----------------------------------------------------------------------|
A|-----------------------------------------------------------------------|
D|-6-6-6-6-6-6-6-6---------------------4-4-4-4-4-4-4-4-------------------|
G|-6-6-6-6-6-6-6-6---2-2-2-2-2-2-2-2---4-4-4-4-4-4-4-4---7-7-7-7-7-7-7-7-|
B|-4-4-4-4-4-4-4-4---2-2-2-2-2-2-2-2---2-2-2-2-2-2-2-2---7-7-7-7-7-7-7-7-|
E|-------------------0-0-0-0-0-0-0-0---------------------5-5-5-5-5-5-5-5-|

Guitar 2
E|-----------------------------------------------------------------------|
A|-----------------------------------------------------------------------|
D|-6-6-6-6-6-6-6-6---------------------4-4-4-4-4-4-4-4-------------------|
G|-6-6-6-6-6-6-6-6---2-2-2-2-2-2-2-2---4-4-4-4-4-4-4-4---7-7-7-7-7-7-7-7-|
B|-4-4-4-4-4-4-4-4---2-2-2-2-2-2-2-2---2-2-2-2-2-2-2-2---7-7-7-7-7-7-7-7-|
E|-------------------0-0-0-0-0-0-0-0---------------------5-5-5-5-5-5-5-5-|

Guitar 3
E|--------------------------------------------------------------------------------|
A|--------------------------------------------------------------------------------|
D|-9-9-9-11-11-11-13-13--13-13-13-14-14-14-16-16\8-8-8-9-9-9-9-11-9-9-9-9-9-9-9-9-|
G|-x-x-x-x--x--x--xx-xx--xx-xx-xx-xx-xx-xx-xx-xx\x-x-x-x-x-x-x-x--x-x-x-x-x-x-x-x-|
B|-7-7-7-9--9--9--11-11--11-11-11-12-12-12-14-14\6-6-6-7-7-7-7s9--7-7-7-7-7-7-7-7-|
E|--------------------------------------------------------------------------------|

AFTER THE SOLO IS THE BASS PART AND SINGING THEN AFTER THAT....

CHORUS- PLAYED TWICE
Guitar 1
E|-----------------------------------------------------------------------|
A|-----------------------------------------------------------------------|
D|-6-6-6-6-6-6-6-6---------------------4-4-4-4-4-4-4-4-------------------|
G|-6-6-6-6-6-6-6-6---2-2-2-2-2-2-2-2---4-4-4-4-4-4-4-4---7-7-7-7-7-7-7-7-|
B|-4-4-4-4-4-4-4-4---2-2-2-2-2-2-2-2---2-2-2-2-2-2-2-2---7-7-7-7-7-7-7-7-|
E|-------------------0-0-0-0-0-0-0-0---------------------5-5-5-5-5-5-5-5-|

Guitar 2
E|-----------------------------------------------------------------------|
A|-----------------------------------------------------------------------|
D|-6-6-6-6-6-6-6-6---------------------4-4-4-4-4-4-4-4-------------------|
G|-6-6-6-6-6-6-6-6---2-2-2-2-2-2-2-2---4-4-4-4-4-4-4-4---7-7-7-7-7-7-7-7-|
B|-4-4-4-4-4-4-4-4---2-2-2-2-2-2-2-2---2-2-2-2-2-2-2-2---7-7-7-7-7-7-7-7-|
E|-------------------0-0-0-0-0-0-0-0---------------------5-5-5-5-5-5-5-5-|

Guitar 3
E|-----------------------------------------------------------------------|
A|--99----99---------99----99----------99----99----------99--------------|
D|-----99----99---------99----99----------99----99----------99-----------|
G|-----------------------------------------------------------------------|
B|-----------------------------------------------------------------------|
E|-----------------------------------------------------------------------|

FOR THE SECOND TIME THE LAST CHORUS IS PLAYED, THE SOLO IS PLAYED ALONG WITH IT.
HOPE THIS IS CORRECT...COMMENTS QUESTIONS OR ANYTHING, EMAIL ME AT
THEMATRICULATER@AOL.COM.  THANKS!
Related for Good Left Undone tab