Song name
# A B C D E F G H I J K L M N O P Q R S T U V W X Y Z

Rise Against - Bricks tab

* Harmonic

Intro
|---|
|---|
|---|
|12*|
|---|
|---|

Verse
|----------|---------------------------------------------------------------|
|----------|---------------------------------------------------------------|
|----------|6-6-6-6-6-6-6-6-4-4-4-4-4-4-4-4-6-6-6-6-6-6-6-6-4-4-4-4--------|
|/////////-|6-6-6-6-6-6-6-6-4-4-4-4-2-2-2-2-6-6-6-6-6-6-6-6-4-4-4-4-4-4-4-4|
|/////////-|4-4-4-4-4-4-4-4-2-2-2-2---------4-4-4-4-4-4-4-4-2-2-2-2-4-4-4-4|
|/////////-|--------------------------------------------------------2-2-2-2|
 Pickslide

|---------------------------------------------------------------|
|---------------------------------------------------------------|
|6-6-6-6-6-6-6-6-4-4-4-4-4-4-4-4-6-6-6-6-6-6-6-6-4-4-4-4--------|
|6-6-6-6-6-6-6-6-4-4-4-4-2-2-2-2-6-6-6-6-6-6-6-6-4-4-4-4--------|
|4-4-4-4-4-4-4-4-2-2-2-2---------4-4-4-4-4-4-4-4-2-2-2-2-4---6--|
|--------------------------------------------------------2---4--|

Chorus                         x2
|--------------------------------|------------------------------------|
|--------------------------------|------------------------------------|
|--------9-9-9-9-6-6-6-6-6-6-6-6-|--------9-9-9-9---------11-11-11-11-|
|7-7-7-7-9-9-9-9-6-6-6-6-6-6-6-6-|7-7-7-7-9-9-9-9-9-9-9-9-11-11-11-11-|
|7-7-7-7-7-7-7-7-4-4-4-4-4-4-4-4-|7-7-7-7-7-7-7-7-9-9-9-9-9--9--9--9--|
|5-5-5-5-------------------------|5-5-5-5---------7-7-7-7-------------|

|------------------------------|
|------------------------------|
|--------9-9-9-9-6-----------4-|
|7-7-7-7-9-9-9-9-6-/////////-4-|
|7-7-7-7-7-7-7-7-4-/////////-2-|
|5-5-5-5-----------/////////---|
                   Pickslide

Verse - Repeated
Chorus - Repeated

|-----|
|-----|
|4/6--|
|x/x--|
|2/4--|
|-----|

(Drums)

Bridge                         x2                               x2
|--------------------------------|--------------------------------|
|--------------------------------|--------------------------------|
|6-6-6-6-9-9-9-9-4-4-4-4-4---4-4-|6-6-6-6-9-9-9-9-4-4-4-4---------|
|6-6-6-6-9-9-9-9-4-4-4-4-2---2-2-|6-6-6-6-9-9-9-9-4-4-4-4-4---4-4-|
|4-4-4-4-7-7-7-7-2-2-2-2---------|4-4-4-4-7-7-7-7-2-2-2-2-4---4-4-|
|--------------------------------|------------------------2---2-2-|
                                  ........................

|--------------------------|------|
|--------------------------|------|
|6-6-6-6-9-9-9-9-4-4-4-4---|------|
|6-6-6-6-9-9-9-9-4-4-4-4-4-|--4-6-|
|4-4-4-4-7-7-7-7-2-2-2-2-4-|--4-6-|
|------------------------2-|--2-4-|

Chorus - Repeated

Outro
|---------|
|---------|
|6-6--4/6-|
|x-x--x/x-|
|4-4--2/4-|
|---------|

And there we have it..


Tap to rate this tab
# A B C D E F G H I J K L M N O P Q R S T U V W X Y Z