Song name
# A B C D E F G H I J K L M N O P Q R S T U V W X Y Z

Rise Against - But Tonight We Dance tab

-----------------------------------------------------------------
But Tonight We Dance - Rise Against
-----------------------------------------------------------------
Tabbed by: Bair
Email: bair_morritt@hotmail.com

Tuning: Standard

**Here's the standard tuning version of "But Tonight We Dance" since I know alot of 
are lazy and like not having to change their guitar.**

Verse:
e|------------------------------------------|
B|------------------------------------------|
G|------------99999999--66666666------------|
D|--66666666--99999999--66666666--66666666--|
A|--66666666--77777777--44444444--66666666--|
E|--44444444----------------------44444444--|
"Breathe deep and easy, swallow your pride...."     X2

e|------------------------------------------|
B|------------------------------------------|
G|--44444444------------33333333------------|
D|--44444444--44444444--33333333--66666666--|
A|--22222222--44444444--11111111--66666666--|
E|------------22222222------------44444444--|
"Stare at my shaking hands through bone...."

Chorus:
e|------------------------------------------|
B|------------------------------------------|
G|----------------------33333333------------|
D|--22222222--44444444--33333333--66666666--|
A|--22222222--44444444--11111111--66666666--|
E|--00000000--22222222------------44444444--|
"I have traveled in darkness...."

e|------------------------------------------|
B|------------------------------------------|
G|--44444444------------33333333------------|
D|--44444444--44444444--33333333--66666666--|
A|--22222222--44444444--11111111--66666666--|
E|------------22222222------------44444444--|
"I crawl from the sinkholes...."

e|------------------------------------------|
B|------------------------------------------|
G|--44444444------------33333333------------|
D|--44444444--44444444--33333333--66666666--|
A|--22222222--44444444--11111111--66666666--|
E|------------22222222------------44444444--|
"I know not your sorrow, but I know mine"

e|-------------------------|
B|-------------------------|
G|--99999999--66666666-----|
D|--99999999--66666666--6--|
A|--77777777--44444444--6--|
E|----------------------4--|
"So say you'll stay and dance with me tonight"

Verse 2:
e|------------------------------------------|
B|------------------------------------------|
G|-----9--6-----4-----3---------------------|
D|--6--9--6--6--4--4--3--6------------------|
A|--6--7--4--6--2--4--1--6------------------|
E|--4--------4-----2-----4------------------|

e|------------------------------------------|
B|------------------------------------------|
G|------------99999999--66666666------------|
D|--66666666--99999999--66666666--66666666--|
A|--66666666--77777777--44444444--66666666--|
E|--44444444----------------------44444444--|

e|------------------------------------------|
B|------------------------------------------|
G|--44444444------------33333333------------|
D|--44444444--44444444--33333333--66666666--|
A|--22222222--44444444--11111111--66666666--|
E|------------22222222------------44444444--|

-Then Chorus

Interlude:
e|-----------------------------|
B|-----------------------------|
G|------888888--99999999-------|
D|--66--888888--99999999-(X2)--|
A|--66--666666--77777777-------|
E|--44-------------------------|
"Tonight! Tonight!"

e|------------------------------------------------|
B|------------------------------------------------|
G|------------99999999------------88888888--------|
D|--66666666--99999999--99999999--88888888--(X4)--|
A|--66666666--77777777--99999999--66666666--------|
E|--44444444------------77777777------------------|
"Tomorrow we might wake in servitude and sadness"

e|------------------------------------------------|
B|------------------------------------------------|
G|------------99999999--44444444------------------|
D|--66666666--99999999--44444444--44444444--(X2)--|
A|--66666666--77777777--22222222--44444444--------|
E|--44444444----------------------22222222--------|

-Then Chorus

End:
e|-----|
B|-----|
G|-----|
D|-6---|
A|-6---|
E|-4---|

---------------------------------------------------------------------------
Verse 2 Lyrics:
In the glow of twilight, our world is finally calm.
I felt it complete me, when the stars give way to dawn.
A language universal, but I speak not it's tongue.
Is this a night that SPANS forever, or a dawn that never comes.

Interlude Lyrics:
Tomorrow we might wake in servitude and sadness.
I will give you everything if only you would have me!
Tomorrow we will sweat and toil,
Our hands will quiver caked with soil,
Tomorrow we'll give it one last chance,
But tonight we dance,
But tonight we dance!
Tap to rate this tab
# A B C D E F G H I J K L M N O P Q R S T U V W X Y Z