Song name
# A B C D E F G H I J K L M N O P Q R S T U V W X Y Z

Rise To Remain - Roads tab

fucking love this band they are awesome and this is my favourite song of the album so i 
thought id learn it...... took me about 5-10 minutes to work out this bit ill try learn 
the rest of you guys

Rise to remain
Roads
City of Vultures
Tuning - Drop D


e|-----------------------------------------------|
B|-----------------------------------------------|
G|-----------------------------------------------|
D|-6-3-6-3-6-3-6-3-5-3-5-3-5-3-5-6---------------|
A|-----------------------------------------------|
D|-----------------------------------------------|

e|-----------------------------------------------|
B|-----------------------------------------------|
G|-----------------------------------------------|
D|-6-3-6-3-6-3-6-3-5-3-5-3-5-3-5-6---------------|
A|-----------------------------------------------|
D|-----------------------------------------------|

e|-----------------------------------------------|
B|-----------------------------------------------|
G|-----------------------------------------------|
D|-6-3-6-3-6-3-6-3-5-3-5-3-5-3-5-6---------------|
A|-----------------------------------------------|
D|-----------------------------------------------|

NOT TO SURE ABOUT THIS BIT!!!
After playing the above i think you play this

e|-----------------------------------------------|
B|-----------------------------------------------|
G|--3-3-3-3---5-5-5-5-----------------=----------|
D|---6-6-6-6---6-6-6-6---------------------------|
A|-----------------------------------------------|
D|-----------------------------------------------|
Tap to rate this tab
# A B C D E F G H I J K L M N O P Q R S T U V W X Y Z