Song name
# A B C D E F G H I J K L M N O P Q R S T U V W X Y Z

Rise To Remain - Bridges Will Burn tab

-------------------------------------------------------------------------------
			     Bridges Will Burn - Rise To Remain
-------------------------------------------------------------------------------
Tabbed by: d1am0nd8
Email: conor.ellery@hotmail.com

Tuning: Drop c#

e|---------------------------------------------------------------------------|
B|---------------------------------------------------------------------------|
G|---------------------------------------------------------------------------|
D|---------------------------------------------------------------------------|
A|----8h12p8---7h10p7-------------------8h12p8-----7h10p7-----10h13p10-------|
E|-----------0--------000-0-000-000-000---------0----------0-------------0---|

e|---------------------------------------------------------------------------|
B|---------------------------------------------------------------------------|
G|---------------------------------------------------------------------------|
D|---------------------------------------------------------------------------|
A|-8h12p8---7h10p7-8h12p8----------------------------------------------------|
E|--------0------------------------------------------------------------------|

Tap to rate this tab
 
# A B C D E F G H I J K L M N O P Q R S T U V W X Y Z