Song name
# A B C D E F G H I J K L M N O P Q R S T U V W X Y Z

Rise To Remain - Illusions tab

-----------------------------------------------------------------------------
                             Illusions - Rise To Remain
-----------------------------------------------------------------------------
Tabbed by: Damian Howard
E-mail: shallprevail@gmail.com
Ive probably made a lot of mistakes since this is my first time tabbing a song by ear.. 
No tabs were to be found anywhere so i tried and only
got as far as the intro
Please, if you can correct my mistakes and try and add on to the song, thanks..

************************************
| h   Hammer-On
| p   Pull-Off
| x   Palm Mute

Tuning:Drop C (C G C F A D)
       Intro : 00:00 - 00:11

D|---------------------------------------------------------------------------|
A|---------------------------------------------------------------------------|
F|---------------------------------------------------------------------------|
C|--8-----11-10------------8-----11-10------13-11-10--8-----11-10---------8--|
G|--8---------------11------------------11------------8---------------11--8--|
C|--8--0---------0------0-----0-----------------------8--8---------0---------|
       x         x      x     x                          x         x
D|---------------------------------------------------------|
A|---------------------------------------------------------|
F|---------------------------------------------------------|
C|-----11-10---------8-----11-10------------8--8-8-6-------|
G|---------------11--8---------------11---------------6-8--|
C|--0---------0------8--8---------0------0-----------------|
    x         x         x         x      x
D|-------------------------------------------------|
A|-------------------------------------------------|
F|-------------------------------------------------|
C|-----11-10------------8-----------------------8--|
G|---------------11--------9p-8h-9p-8h-9p-8-----8--|
C|--8---------0------8-----------------------0--8--|
    x         x      x                       x
Tap to rate this tab
# A B C D E F G H I J K L M N O P Q R S T U V W X Y Z