Song name
# A B C D E F G H I J K L M N O P Q R S T U V W X Y Z

Risen To Reclaim - From The Dirt tab

This is my take on the song and i could not figure out either of the solos but 
everything else i got. it may not be 100

intro riff
1|-----------------------------------------------------------|
2|-----------------------------------------------------------|
3|-----4--5--4--2-----4--------------------------------------|
4|---2--2--2--2--2--5-2----X3--------------------------------|
5|-----------------------------------------------------------|
6|-----------------------------------------------------------|

after 3rd time
1|-----------------------------------------------------------|
2|-----------------------------------------------------------|
3|-----4--5--4--2-----55555-444444-22222---------------------|
4|---2--2--2--2--2--5----------------------------------------|
5|-----------------------------------------------------------|
6|-----------------------------------------------------------|

0:23    verse
1|-----------------------------------------------------------|
2|-----------------------------------------------------------|
3|-----------------------------------------------------------|
4|--5----7-----9---7/9--7/9------5----7----------------------|
5|--3----5-----7---5/7--5/7------3----5----------------------|
6|-----------------------------------------------------------|

0:30   fill #1
1|-----------------------------------------------------------|
2|-----------------------------------------------------------|
3|-----------------------------------------------------------|
4|-----------------------------------------------------------|
5|-----------------------------------------------------------|
6|-----3p-0-0-0-5p-0-0--3p-0-0-5p-0--------------------------|
            |pm|     |pm     |pm
0:33  verse
1|-----------------------------------------------------------|
2|-----------------------------------------------------------|
3|-----------------------------------------------------------|
4|--5----7-----9---7/9--7/9------5----7----------------------|
5|--3----5-----7---5/7--5/7------3----5----------------------|
6|-----------------------------------------------------------|


0:40    fill #2
1|-----------------------------------------------------------|
2|-----------------------------------------------------------|
3|-----------------------------------------------------------|
4|----4------5---4---2---------------------------------------|
5|----4------5---4---2---------------------------------------|
6|--2-2----3-3---2---0---------------------------------------|
   pm     pm


 0:42 fill #3
1|-----------------------------------------------------------|
2|-----------------------------------------------------------|
3|-----------------------------------------------------------|
4|-----------------------------------------------------------|
5|------10p-7-7-10p-7-7-10-7-10-7-10-------------------------|
6|-----------------------------------------------------------|
the part above was really hard to figure out the pattern and i'm not sure
if this is right

repeats other parts from here

|intro riff|
|verse     |
|fill #1   |
|verse     |
|fill#2    |
|fill #3   |
|fill #2   |


1:52
1|-----------------------------------------------------------|
2|-----------------------------------------------------------|
3|-----------------------------------------------------------|
4|-----9------9--5------5--7------7--------------------------|
5|-----7-7777-7--3-3333-3--5-5555-5--------------------------|
6|-----------------------------------------------------------|

Guitar solo in E
sorry im no good
at figuring out solos


1|-----------------------------------------------------------|
2|-----------------------------------------------------------|
3|-----------------------------------------------------------|
4|-----------------------------------------------------------|
5|---2-------5-------7--------------8-------7------2---------|
6|---0-000---3-333---5-555--0-222---6-666---5-555--0---------|




|intro|
|verse|
|fill#1|
|verse|
|fill#2|
|fill#3|


Another guitar solo in E

sorry again

|intro|(hold on 2nd fret 3rd string on the third time through the riff)
1|-----------------------------------------------------------|
2|-----------------------------------------------------------|
3|-----------------------------------------------------------|
4|---4-4444---4----------------------------------------------|
5|---2-2222---2----------------------------------------------|
6|-----------------------------------------------------------|

thanks, email me @ Blackpanem@yahoo.com for questions!
Tap to rate this tab
# A B C D E F G H I J K L M N O P Q R S T U V W X Y Z