Guitaretab - guitar tabs
Song name
# A B C D E F G H I J K L M N O P Q R S T U V W X Y Z

Rising Mercury - Around Me tab

This is a new band going to make it big, out of St. Catherines, Ontario Canada.
E|----------------------|
B|----------------------|
G|--------------------0-|
D|------------------0-0-|
A|-333--555--777--7-5-3-|
E|-333--555--777--7-5-3-|
  |Fast---------|
[ Tab from: http://www.guitaretab.com/r/rising-mercury/58973.html ]
E|----------------------------|
B|----------------------------|
G|--------------------------0-|
D|-333--555--777---0-7-5-3--0-|
A|-333--555--777---0-7-5-3--0-|
E|--------------------------0-|

E|-0-1-3--0-1-3-|
B|--------------|
G|--------------|
D|--------------|
A|--------------|
E|--------------|

E|-00-01-00---1---0-|
B|-00-01-00---1---0-|
G|-00-01-00---1---0-|
D|-00-01----------0-|
A|------------------|
E|------------------|

    If you hate it just whine at me at ajwmagnet1@hotmail.com, same goes if you love it!       Adam Wickens
Related for Around Me tab