Song name
# A B C D E F G H I J K L M N O P Q R S T U V W X Y Z

Rising Mercury - Acissej tab

-------------------------------------------------------------------------------
			     Acissej - Mercury Rising
-------------------------------------------------------------------------------
Tabbed by: James Floyd
Email: jestifer192@hotmail.com

Tuning: standard
   _______________________________   
  /              X3               \
e|---------------------------------------------------------------------------|
B|---------------------------------------------------------------------------|
G|-----7-----7h9-----7h9bh------7h9------7h9p7--9-/11-12--12-12-11-11-9-9----|
D|-7h9---7h9-----7h9--------7h9------7h9-------------------------------------|
A|---------------------------------------------------------------------------|
E|---------------------------------------------------------------------------|

e|---------------------------------------------------------------------------|
B|---------------------------------------------------------------------------|
G|-7-7---------------------------------7-9-7-9-11-12-12-11-11-14-16----------|
D|-----9-9-7-7-5-5---------------5-7-9---------------------------------------|
A|-----------------9-9-7-5-5h7/9---------------------------------------------|
E|---------------------------------------------------------------------------|

e|---------------------------------------------------------------------------|
B|---------------------------------------------------------------------------|
G|-16-14-12-11-------------------12-------12h14-------12h14bh--------12h14---|
D|-------------14-12-14-14-12h14----12h14-------12h14----------12h14---------|
A|---------------------------------------------------------------------------|
E|---------------------------------------------------------------------------|

e|-------12h15-12-14b--14p12-------------------------------------------------|
B|-12h15---------------------14p12-------------------------------------------|
G|---------------------------------14p12-------14p12---------------12h14-----|
D|---------------------------------------14p12-------14p12---12h14-----------|
A|---------------------------------------------------------------------------|
E|---------------------------------------------------------------------------|

e|---------------------------------------------------------------------------|
B|---------------------------------------------------------------------------|
G|--------12h14-------12h14-------12h14-------12h14-------12h14b-14b-12h14p12|
D|--12h14-------12h14-------12h14-------12h14-------12h14--------------------|
A|---------------------------------------------------------------------------|
E|---------------------------------------------------------------------------|

e|---------------------------------------------------------------------------|
B|---------------------------------------------------------------------------|
G|------------------------7h9b-9b-9b-9b-9b-7-7-9br7-9br7-9br7-9br7-9br7---9--|
D|--14-12-9-7-5-------7h9----------------------------------------------------|
A|--------------9-7h9--------------------------------------------------------|
E|---------------------------------------------------------------------------|

e|---------------------------------------------------------------------------|
B|---------------------------------------------------------------------------|
G|--7h9----------------------------------------------------------------------|
D|------9-7-5--------------------------0-0-0---------------------------------|
A|------------9h10-7-5-5-5-5-5-5-5-5-5-5-5-5-7-7-7-9-9-9-10-10-10-9-9-9------|
E|---------------------------------------------------------------------------|

e|------------------------------------------------------------2--------------|
B|------------------------------------------------------------3--------------|
G|------------------------------------------------------------2--------------|
D|---------------------------------------------------------------------------|
A|--7-7-7-5-5-5-5-5-5-5h7p5h7p5h7p5h7p5h7p5h7p5h7b--5h7p5--------------------|
E|---------------------------------------------------------------------------|


| /  slide up
| \  slide down
| h  hammer-on
| p  pull-off
| ~  vibrato
| +  harmonic
| x  Mute note
| b  Bend
| bh Bend Halfway
| br Bend and Release
===============================================================================
Tap to rate this tab
# A B C D E F G H I J K L M N O P Q R S T U V W X Y Z