Song name
# A B C D E F G H I J K L M N O P Q R S T U V W X Y Z

Rising Phoenix - Se Non Adesso tab

#-----------------------------------------------------------------------------#
#-- File created with Instab - http://www.pconline.com/~smcarey/instab.html --#
#-----------------------------------------------------------------------------#

Author/Artist: Rising Phoenix
Title: Se non adesso 
Transcribed by: dany_dela@yahoo.it
--------------------------------10---17--15-----------------------------------
-13/15-13br----------------------------------18--17/18---15-------------------
------------14p12h14-14\9h7-12br---14--14--14--14-----12/14--9brh10p9---------
----------------------------------------------------------------------10/12---
------------------------------------------------------------------------------
------------------------------------------------------------------------------
 Lead guitar INTRO: use Distortion effects or pedal                           

--------------------|-------------------------------|-------------------------
--------------------|---6-------8--8p6p5----6---6/8-|-------------------------
-3----5----/7----\7-|-3-----3/5-----------3-----3/5-|-------------------------
----------5/7----\7-|-------------------------------|-------------------------
--------------------|-------------------------------|-------------------------
--------------------|-------------------------------|-------------------------
 Riff 1               Riff 2                                                  

--------------------------------------------|-------------|-------------------
------15----15-------15---------------------|-------------|-------------------
---/14----12----12\11---11\7--7\5h7--7/9-7--|-------------|--7\4h5--5\2h0-----
--------------------------------------------|--9/10-10\5--|-------------------
--------------------------------------------|-------------|-------------------
--------------------------------------------|-------------|-------------------
 Chorus 2x                                   end1          end2               

Tap to rate this tab
 
# A B C D E F G H I J K L M N O P Q R S T U V W X Y Z