Rita Honti - Neusidler Der Fuggerin Tanz tab

Tabbed By:teddyg10594
Email:tgresler@aim.com
e|--2--2-------2-3-2--2-0-2-3--5-~-5-|-2-2-----2-3-2-2-0-2-3-5-5h7p5-5-----|
B|--3--3-----3--------3-2-3-5--7-~-7-|-3-3---3-------3-2-3-5-7-------7-----|
G|--2--2---2-------------------------|-2-2-2-------------------------------|
D|--0----0------------0-0-0-0--0-~-0-|-0-0-----------0-0-0-0-0-5-6-7-0-----|
A|-----------------------------------|-------------------------------------|
E|-----------------------------------|-------------------------------------|

e|-7-------7--5--------5--3--3-------|-------------------------2-----------|
B|-8-------8--7--------7--5----5-----|-------------------------3-----------|
G|------4-----------2------------6-4-|-------------------------------------|
D|-0--5----0--0--4-----0--0----------|-7-5-4---------------2-4-0-----------|
A|-----------------------------------|-------7-5---0-2-4-5-----------------|
E|-----------------------------------|-----------5-------------------------|

e|-7------7--5-------5---3-----------|-------------------------------------|
B|-8------8--7-------7-----5---------|---------------3--3--3----3----------|
G|------4---------2----------6-4-2---|---------------2-----2---------------|
D|-0--5---0--0--4----0-------------5-|-4----------5--0-----0---------------|
A|-----------------------------------|--7-5-4--------0-0---0--0------------|
E|-----------------------------------|--------5----------------------------|

e|-----------------------------------|-------------------------------------|
B|-7--5--3--5--7h8p7-7---7-----------|--7-----------------7----------------|
G|-7--6--4--6--------7-6-7-----------|--7-----------4-6-7-7----------------|
D|-7--5--0--5--------7---7-----------|--7-----4-5-7-------7----------------|
A|-----------------------------------|----5-7------------------------------|
E|-----------------------------------|-------------------------------------|

e|-----------------------------------|
B|-7--5--3--5--7h8p7-7---7-----------|
G|-7--6--4--6--------7-6-7-----------|
D|-7--5--0--5--------7---7-----------|
A|--------------------------5~-------|
E|-----------------------------------|
http://www.naxos.com/person/Rita_Honti/81158.htm
Tap to rate this tab
 
# A B C D E F G H I J K L M N O P Q R S T U V W X Y Z