Song name
# A B C D E F G H I J K L M N O P Q R S T U V W X Y Z

Rita Ora - Shine Ya Light tab

First time to do a tab. Please be nice :)

Intro/Verses:

e-----------------------------------|--------------------------------|
B-----------------------------------|--------------------------------|
G-----------------------------------|--------------------------------|
D----------6---4-6-7-7-6-6-4-4------|---------6---4-6-7-7-----9-9-6--|
A----4-6-7---------------------7-7--|---4-6-7-------------7-7--------|
E-----------------------------------|--------------------------------|

Pre-Chorus:
"Eh, ah, eh, ah
Eh, oh, a shining star...."

e--0-0--0-0--0-0--0-----|
B--0-0--0-0--0-0--0-----|
G--9-9--4-4--6-6--2-----|
D--9-9--4-4--6-6--2-----|
A--7-7--2-2--4-4--0-----|
E-----------------------|

Chorus:

e--0-0-0-0-0-|
B--0-0-0-0-0-|
G--9-9-9-9-9-|  "Wo-oh, shine your light"
D--9-9-9-9-9-|
A--7-7-7-7-7-|
E------------|

e--0-0-0-0-0-|
B--0-0-0-0-0-|
G--4-4-4-4-4-|  "Wo-oh, set the world on fire"
D--4-4-4-4-4-|
A--2-2-2-2-2-|
E------------|

e--0-0-0-0-0-|
B--0-0-0-0-0-|
G--2-2-2-2-2-|  "Wo-oh, shine tonight"
D--2-2-2-2-2-|
A--0-0-0-0-0-|
E------------|

e--0-0-0-0-0-|
B--0-0-0-0-0-|
G--4-4-4-4-4-|  "Wo-oh, set the world on fire"
D--4-4-4-4-4-|
A--0-0-0-0-0-|
E--4-4-4-4-4-|


"And we don't give up till we run out of desire...."
e-----------------------------------|--------------------------------|
B-----------------------------------|--------------------------------|
G-----------------------------------|--------------------------------|
D----------6---4-6-7-7-6-6-4-4------|---------6---4-6-7-7-----9-9-6--|
A----4-6-7---------------------7-7--|---4-6-7-------------7-7--------|
E-----------------------------------|--------------------------------|

Tap to rate this tab
 
# A B C D E F G H I J K L M N O P Q R S T U V W X Y Z