Song name
# A B C D E F G H I J K L M N O P Q R S T U V W X Y Z

Rita Ora - I Will Never Let You Down tab

Song: I Will Never Let You Down
Artist: Rita Ora
Album: TBA (2014)
Tabbed by tmckee98

Tuning: Standard (EADGBe)


e|---------------------------------------------------------------|
B|---------------------------------------------------------------|
G|-----1---------1h2p1-------------------------------------------|
D|-2--------2----------2-------1---------------2-----------------| x12
A|-------------------------2-------2-----4----------4------------|
E|---------------------------------------------------------------|

e|---------------------------------------------------------------|
B|---------------------------------------------------------------|
G|-----------------1---2-----------1-----------------------------|
D|-----1---2---4-----------2---4-----4-2-1---1h2-4-2-1-----------| x2
A|-4---------------------------------------------------4---------|
E|---------------------------------------------------------------|

e|---------0---2---4---5---0---2---4-2-0-------0-2-0-------------|
B|-2---4---------------------------------4---4-------4-2---------|
G|---------------------------------------------------------------|
D|---------------------------------------------------------------| x2
A|---------------------------------------------------------------|
E|---------------------------------------------------------------|

e|---------------------------------------------------------------|
B|---------------------------------------------------------------|
G|-----1---------1h2p1-------------------------------------------|
D|-2--------2----------2-------1---------------2-----------------| x10
A|-------------------------2-------2-----4----------4------------|
E|---------------------------------------------------------------|

e|---------------------------------------------------------------|
B|---------------------------------------------------------------|
G|-----------------1---2-----------1-----------------------------|
D|-----1---2---4-----------2---4-----4-2-1---1h2-4-2-1-----------| x2
A|-4---------------------------------------------------4---------|
E|---------------------------------------------------------------|

e|---------0---2---4---5---0---2---4-2-0-------0-2-0-------------|
B|-2---4---------------------------------4---4-------4-2---------|
G|---------------------------------------------------------------|
D|---------------------------------------------------------------| x2
A|---------------------------------------------------------------|
E|---------------------------------------------------------------|

e|---------------------------------------------------------------|
B------2-------2-------0-------0---2-2-2-0-0-0-0-0---------------|
G|---2---2---2---2---1---1---1---1-----------------1-1-1-2-2-2-2-|
D|-2-------2-------2-------2-------------------------------------| x3
A|---------------------------------------------------------------|
E|---------------------------------------------------------------|

e|---------0---2---4---5---0---2---4-2-0-------0-2-0-------------|
B|-2---4---------------------------------4---4-------4-2---------|
G|---------------------------------------------------------------|
D|---------------------------------------------------------------| x4
A|---------------------------------------------------------------|
E|---------------------------------------------------------------|

e|---------------------------------------------------------------|
B|---------------------------------------------------------------|
G|-----1---------1h2p1-------------------------------------------|
D|-2--------2----------2-------1---------------2-----------------| x2
A|-------------------------2-------2-----4----------4------------|
E|---------------------------------------------------------------|

Tap to rate this tab
 
# A B C D E F G H I J K L M N O P Q R S T U V W X Y Z