Song name
# A B C D E F G H I J K L M N O P Q R S T U V W X Y Z

Ritchie Valens - La Bamba tab

|-----------------------------------------------------------------------------|
|-------------1-1-1-1-1-1-0----------1-1-1-1-1-1-0---------------1-0--0-------|
|-1-------------------------1-----0----------------1-1-1-1-3-0-3-----3--1-----|
|--1-1------------------------3-3---------------------------------------------|
|--------3-1------------------------------------------------------------------|
|------4----------------------------------------------------------------------|

|------------------------------------------------------------------|
|-1-1-1-1-1-1-0---------------1-0-0-0-----------------0------------|
|--------------1-1-1-1-3-0-3----------1-------1---0-0-1-1----------|
|---------------------------------------3--1----3-------3-0-0------|
|---------------------------------------------------------0-0------|
|------------------------------------------------------------------|
Tap to rate this tab
 
# A B C D E F G H I J K L M N O P Q R S T U V W X Y Z