Song name
# A B C D E F G H I J K L M N O P Q R S T U V W X Y Z

Ritchie Valens - We Belong Together tab

  You're mine     and we belong        together         Yes, we belong
6|---------------|-------------------|----------------|--------------------|
5|---------------|-------------------|----------------|--------------------|
4|-17-17---------|--15-17-19-17------|--15-17-14------|--15-17-19-17-------|
3|---------------|-------------------|----------------|--------------------|
2|---------------|-------------------|----------------|--------------------|
1|---------------|-------------------|----------------|--------------------|

  together            for                 eternity      You're mine
6|---------------|-------------------|----------------|--------------------|
5|---------------|-------------------|----------------|--------------------|
4|-15-17-14------|--10-7-------------|----------------|--17-17-------------|
3|---------------|-------------------|--8-7-7---------|--------------------|
2|---------------|-------------------|--8-------------|--------------------|
1|---------------|-------------------|----------------|--------------------|

  your lips         belong               to me          Yes, they
6|---------------|-------------------|----------------|--------------------|
5|---------------|-------------------|----------------|--------------------|
4|-15-17---------|--19-17------------|--15-17-14------|--15-17-------------|
3|---------------|-------------------|----------------|--------------------|
2|---------------|-------------------|----------------|--------------------|
1|---------------|-------------------|----------------|--------------------|

  belong to        only me             for              eternity
6|---------------|-------------------|----------------|--------------------|
5|---------------|-------------------|----------------|--------------------|
4|-19-17-15------|--17-14-14---------|--10-7----------|--------------------|
3|---------------|-------------------|----------------|--8-7-7-------------|
2|---------------|-------------------|----------------|--8-----------------|
1|---------------|-------------------|----------------|--------------------|

  You're mine,     my baby             and you'll       always be
6|-5-9-----------|--9-5-7-8-8--------|--9-7-----------|--9-9-9-7-----------|
5|---------------|-------------------|----------------|--------------------|
4|---------------|-------------------|----------------|--------------------|
3|---------------|-------------------|----------------|--------------------|
2|---------------|-------------------|----------------|--------------------|
1|---------------|-------------------|----------------|--------------------|


  I swear by       everything          I own           You'll always,
6|-7-9-9---------|--5-7-8------------|--8-8-----------|--9-12-9------------|
5|---------------|-------------------|----------------|--------------------|
4|---------------|-------------------|----------------|--------------------|
3|---------------|-------------------|----------------|--------------------|
2|---------------|-------------------|----------------|--------------------|
1|---------------|-------------------|----------------|--------------------|

  always           be mine            You're mine,      and we belong
6|-12-9----------|--9-11-------------|----------------|--------------------|
5|---------------|-------------------|----------------|--------------------|
4|---------------|-------------------|--17-17---------|--15-17-19-17-------|
3|---------------|-------------------|----------------|--------------------|
2|---------------|-------------------|----------------|--------------------|
1|---------------|-------------------|----------------|--------------------|

  together         Yes, we belong      together         for eternity
6|---------------|-------------------|----------------|--------------------|
5|---------------|-------------------|----------------|--------------------|
4|-15-17-14------|--15-17-19-17------|--15-17-14------|--10-7--------------|
3|---------------|-------------------|----------------|--8-7-7-------------|
2|---------------|-------------------|----------------|--8-----------------|
1|---------------|-------------------|----------------|--------------------|
Tap to rate this tab
# A B C D E F G H I J K L M N O P Q R S T U V W X Y Z