Song name
# A B C D E F G H I J K L M N O P Q R S T U V W X Y Z

Rites Of Spring - End On End tab

-------------------------------------------------------------------------------
			     "End On End" - Rites of Spring
-------------------------------------------------------------------------------
Tabbed by: Sebastián Ara. (Buenos Aires, Argentina)
Email/MSN: playing.the.angel_@hotmail.com

Tuning: EADGBe (Standard)

INTRO:
e|---------------------------------------------------------------------|
B|---------------------------------------------------------------------|
G|-4-----4-------4------4--------4------4-----------4-------4----------|
D|-----7--------------7---------------7-------------------7---7-7-(6)--|
A|---------7--------------5----------------4---------------------------|
E|---------------------------------------------------------------------|

CHORDS
e|----------------------------------------------------------------------------------------------|
B|----------------------------------------------------------------------------------------------|
G|-------------------------7-7-7-7-7-7-7-7-7-7/6-6-6-6-6-6-6-6-6-6-6-6-6-6-6-7-7-7-7-7-7-7-7-7--|
D|-9-9-9-9-9-9-9-9-9-9-9-9-7-7-7-7-7-7-7-7-7-7/6-6-6-6-6-6-6-6-6-6-6-6-6-6-6-7-7-7-7-7-7-7-7-7--|
A|-7-7-7-7-7-7-7-7-7-7-7-7-5-5-5-5-5-5-5-5-5-5/4-4-4-4-4-4-4-4-4-4-4-4-4-4-4-5-5-5-5-5-5-5-5-5--|
E|-0-0-0-0-0-0-0-0-0-0-0-0-x-x-x-x-x-x-x-x-x-x--------------------------------------------------|

===============================================================================
Tap to rate this tab
# A B C D E F G H I J K L M N O P Q R S T U V W X Y Z