Song name
# A B C D E F G H I J K L M N O P Q R S T U V W X Y Z

Rites Of Spring - In Silence Words Away tab

Intro (clean)
          Pm.........           Pm.........
|------------------------------------------|
|------------------------------------------|
|------------------------------------------|
|----------5-----5---------------5-----5---|
|-5--0-3-5---3-3---3--0-5--0-3-5---3-3---3-|
|------------------------------------------|

Verse                   x1                        x7
|------------------------|-------------------------|
|-------------5--0-2/3-5-|------------5-5--0-3/5-6-|
|------------------------|-------------------------|
|------------------------|-------------------------|
|-5--5-3--5-3------------|-5-5-3--5-3--------------|
|------------------------|-------------------------|

pre-chorus
|-----------------------------------------|
|-11/13-13---------11----11/13-13---------|
|----------12v--10----12----------12\10v--|
|-----------------------------------------|
|-----------------------------------------|
|-----------------------------------------|

choruz
 Pm........      Pm........     Pm.........     Pm........      x2
|----------------------------------------------------------------|
|-----------5-6-5-----------5-6-5-----------5-6-5----------5-6-5-|
|----------------------------------------------------------------|
|-5-5-5-5-5-------5-5-5-5-5-------3-3-3-3-3-------3-3-3-3-3------|
|-3-3-3-3-3-------3-3-3-3-3-------1-1-1-1-1-------1-1-1-1-1------|
|----------------------------------------------------------------|

post-chorus           x1                x7
|----------------------|-----------------|
|-6--------------------|-----------------|
|-3----4b--------------|-4b--------------|
|------------3---3-5---|-------3---3-5---|
|----------3---3-----5-|-----3---3-----5-|
|----------------------|-----------------|

Pm. - palm mutting
v - vibratto
b - bend
/ - slide up
\ - slide down
Tap to rate this tab
# A B C D E F G H I J K L M N O P Q R S T U V W X Y Z