Song name
# A B C D E F G H I J K L M N O P Q R S T U V W X Y Z

Rival Schools - Take One For The Team tab

Intro/Verse
e|---------------------------------------------------------------------------
B|---------------------------------------------------------------------------
G|---------------------------------------------------------------------------
D|9-9-9-4-4-4-7-7-7-9-9-9-4-4-4-7-7-7-7-7------------------------------------
A|7-7-7-2-2-2-5-5-5-7-7-7-2-2-2-5-5-5-5-5-5----------------------------------
E|----------------------------------------3----------------------------------

Bridge
e|---------------------------------------------------------------------------
B|---------------------------------------------------------------------------
G|---------------------------------------------------------------------------
D|7-7-7-7-7-7-7-7-7-7--------------------------------------------------------
A|5-5-5-5-5-5-5-5-5-5--------------------------------------------------------
E|---------------------------------------------------------------------------

Chorus
e|---------------------------------------------------------------------------
B|---------------------------------------------------------------------------
G|---------------------------------------------------------------------------
D|---------------------------------------------------------------------------
A|5-5-5-12-12-12-7-7-7-14-14-14----------------------------------------------
E|3-3-3-10-10-10-5-5-5-12-12-12----------------------------------------------

Slow-Acoustical Part
E|0-0-0-0-0-0-0-0-0-0-0-0-0-0-0-0-0-0-0-0-0-0-0-0-0-0------------------------
B|0-0-0-0-0-0-0-0-0-0-0-0-0-0-0-0-0-0-0-0-0-0-0-0-0-0------------------------
G|9-9-9-9-9-9-9-9-9-9-9-9-9-9-9-9-9-9-9-9-9-7-7-7-7-7------------------------
D|9-9-9-9-9-9-9-9-9-9-9-9-9-9-9-9-9-9-9-9-9-7-7-7-7-7------------------------
A|7-7-7-7-7-7-7-7-7-7-7-7-2-2-2-2-2-2-2-2-2-5-5-5-5-5------------------------
E|---------------------------------------------------------------------------
Tap to rate this tab
# A B C D E F G H I J K L M N O P Q R S T U V W X Y Z