Rival Sons - Tell Me Something tab

Tell Me Something by Rival Sons
from Before The Fire

Standard Tuning

INTRO                                                  x4
e-------------------------------------------------------|
B-------------------------------------------------------|
G----------------4b--------6b-6p4-6p4-------------------|
D-xx--4h6-6p4-6-----6h4-6-------------6p3-4p3-4p3-4-----|
A-xx------------------------------------------------2~--|
E-------------------------------------------------------|

VERSE
e-------------------------------|
B-------------------------------| then play
G-------------------------------| the following
D------6~--4p3-4p3----------6~--|
A------------------2~-----------|
E--4-4------------------4-4-----|


1st time                    2nd time              3rd time
e--------------------------|---------------------|------------------|
B-6-6br-4------------------|---------------------|------------------|
G---------4---4---4h6p4----|-6b-6b-6b-6b-6r-4----|------------------|
D-----------6---6-------6--|------------------6--|------------------|
A--------------------------|---------------------|-2-4-4br-4-2-4-2--|
E--------------------------|---------------------|------------------|

4th time
e----------------|
B----------------|
G-4/6-6-6\5-5/6--|
D-4/6-6-6\5-5/6--|
A----------------|
E----------------|

0.47
BRIDGE
e-----------------------------------------------------------------------------------|
B-------------8-9-9p8-9p8----------------8-9p8-9p8-9/11--------------8-9-9p8-9p8----|
G-88888--8-10-------------8--88888--8-10-----------------88888--8-10-------------8--|
D-88888----------------------88888-----------------------88888----------------------|
A-66666----------------------66666-----------------------66666----------------------|
E-----------------------------------------------------------------------------------|

BRIDGE cont.
e---------------|
B---------------|
G--88888--------|
D--88888--4--5--|
A--66666--4--5--|
E---------2--3--|

CHORUS                                                x4
e-------------------------------------------------------|
B-------------------------------------------------------|
G----------------4b--------6b-6p4-6p4-------------------|
D-xx--4h6-6p4-6-----6h4-6-------------6p3-4p3-4p3-4-----|
A-xx------------------------------------------------2~--|
E-------------------------------------------------------|

VERSE
e-------------------------------|
B-------------------------------| then play
G-------------------------------| the following
D------6~--4p3-4p3----------6~--|
A------------------2~-----------|
E--4-4------------------4-4-----|

5th time           6th time           7th time              8th time
e-----------------|-----------------|---------------------|--------------------------|
B-----------------|-----------------|---------------------|--------------------------|
G-----------------|--4h6-6p4-6p4----|---------------------|--------------------------|
D--9p6-6-9-6-9p6--|--------------6--|---------------------|--------------------------|
A-----------------|-----------------|----2-4-4b-4b-4p2----|--------------------------|
E-----------------|-----------------|--4---------------4--|--slide-pick up-E-string--|


THEN PLAY BRIDGE


THEN PLAY CHORUS

2.20 SOLO THING
e----------------------------------------------------------------------------------------|
B------------------------------------------------------------------------------55555555--|
G--4----4----4----4h6p4--4----4---4h6-7p6-4h6-4--4---4---4----4h6p4--4----4----44444444--|
D----h6---6----h6----------h6---6-----------------h6---6---h6----------h6---6------------|
A----------------------------------------------------------------------------------------|
E----------------------------------------------------------------------------------------|

Any corrections please comment
Thanks
Tap to rate this tab
 
# A B C D E F G H I J K L M N O P Q R S T U V W X Y Z