Song name
# A B C D E F G H I J K L M N O P Q R S T U V W X Y Z

Rival Sons - Memphis Sun tab

Memphis Sun by Rival Sons
from Before The Fire

Standard Tuning

INTRO                                                    x2          
e------------------------------------------------------------|
B----------12-12--------12-12-------12-10p9-10p9-10p9--------|bend the 11
G----------------11-----------11----------------------11(b)--|on last time
D-11-11-11----------11-----------13--------------------------|
A------------------------------------------------------------|
E------------------------------------------------------------|

MAIN RIFF
e--------------------------|
B--------------------------|
G---------------------11~--|
D--11-11-11-11-11-11--11~--|
A--11-11-11-11-11-11--9-~--|
E--9--9--9--9--9--9--------|


FILLS 0.22            0.28   
e-------------------|-----------------|
B-------------------|-----------------|
G--9-9-9-9-9--------|-----------------|
D------------11-9~--|--11p9----9-11~--|
A-------------------|-------11--------|
E-------------------|-----------------|


SOLO THING 0.30
e--------------------------------------------------------|
B--------------------------------------------------------|
G--------------------------------------------------------|
D-----9b--9p6-9/11-----------------------------------9b--|
A--9b----------------9p7-9-7br-----9p7-9p7-9-9-7br-------|
E------------------------------9-------------------9-----|

BRIDGE
e----------------------------------|
B----------------------------------|
G----------------------------------|
D----------------------9--9-9---7--|
A--11-11-11-11-11-10-7-9--9-9---7--|
E----------------------7--7-7-0-5--|


CHORUS
e---------------------------------------------------------|
B----------12-12--------12-12-------12-10p9-10p9-10p9-----|
G----------------11-----------11----------------------11--|
D-11-11-11----------11-----------13-----------------------|
A---------------------------------------------------------|
E---------------------------------------------------------|


Any corrections please comment
Thanks
Tap to rate this tab
 
# A B C D E F G H I J K L M N O P Q R S T U V W X Y Z