Rival Sons - I Want More tab

I Want More by Rival Sons
from Before The Fire

Standard Tuning

MAIN RIFF                            x8
e-------------------------------------|
B-------------------------------------|
G----------------------4--------------|
D--6-6p4-6-6p4-6-6p4-6---6p4----------|
A-------------------------------------|
E-------------------------------------|

VERSE                  x4
e-----------------------|
B-----------------------|
G-----------------------|
D--9\6-6-----9\6-6------|
A--9\6-6-----9\6-6------|
E--7\4-4-----7\4-4------|

1.36              x2
e-------------------|
B-------------------|
G-------------------|
D--6-4-3-6-4-3------|
A--6-4-3-6-4-3------|
E--4-2-1-4-2-1------|

1.50
e------------------------------------------|
B--14b-------12------12--------------------|
G------13-11-----13-----13p11-13p11-13p11--|
D------------------------------------------|
A------------------------------------------|
E------------------------------------------|

That's pretty much the whole song
Any corrections please comment
Thanks
Tap to rate this tab
 
# A B C D E F G H I J K L M N O P Q R S T U V W X Y Z