Guitaretab - guitar tabs
Song name
# A B C D E F G H I J K L M N O P Q R S T U V W X Y Z

Rival Sons - Pressure And Time tab

RIVAL SONS - PRESSURE AND TIME
tabbed by Dom Mckenna :)

INTRO...

pt1
|-----------------------x--x-----|
|-----------------------x--x-----|
|-----------------------x--x-----|
|---------------3-------x--x-----|
|-----------------------x--x-----|
|----1---3---4----------x--x-----| X3

pt2
|------------------------------------|
|------------------------------------|
|-------------------------5----3-----|
|-------------------------5----3-----|
|---------------3---------3----1-----|
|----1---3---4-----------------------|

back to 1, then 2 again. then go into this bit
[ Tab from: http://www.guitaretab.com/r/rival-sons/294088.html ]
pt3
|------------------------------------------------------------|
|------------------------------------------------------------|
|------------------------------------------------------------|
|----3-------5-------6---------------------------------------|
|----3-------5-------6---------------------------------------|
|----1--x8---3--x8---4---------(do a lick here in key of F)--|


then from here the pattern will be 1, 2, 1, 2, 3 then go into this...

|-------------------------------------------|
|-------------------------------------------|
|-------------------------------------------|
|------3--3--3--1--3-----3--3--3--1--3------|
|-------------------------------------------|
|-------------------------------------------| X8


Then you just beast a solo in F and yeah, then you go back to the start and you can work 
out the pattern there :)

xx
Related for Pressure And Time tab
Pressure And Time chords by Rival Sons