Song name
# A B C D E F G H I J K L M N O P Q R S T U V W X Y Z

Rival Sons - Pressure And Time tab

Rival Sons
Pressure and Time intro
Standard Tuning
Tabbed by The Conqueror



E-------------------------------------|
B-------------------------------------|
G-------------------------------------|
D--------------3----------------------|
A-------------------------------------|
E-----1---4-5-------------------------| x4


E-------------------------------------|
B-------------------------------------|
G-----3-------------------------------|
D-----3-------------------------------|B5 x1
A-1-----------------------------------|
E-------------------------------------|

E-------------------------------------|
B-------------------------------------|
G-------------------------------------|
D-------6-----------------------------|A5 x1
A-------6-----------------------------|
E--4----------------------------------|
Tap to rate this tab
 
# A B C D E F G H I J K L M N O P Q R S T U V W X Y Z