Song name
# A B C D E F G H I J K L M N O P Q R S T U V W X Y Z

Rival Sons - Pocketful Of Stones tab

-----------------------------------------------------------------------------
                             Pocketful of Stones - Rival Sons
-----------------------------------------------------------------------------
Tabbed by: Franz Manecke
Email: rage_fm@web.de

Tuning: Open G (D-G-D-G-B-D)

Really easy version, tabbed for 1 Guitar. You should listen to song for correct 
timing and rhythym. 

This is my first attempt to tab this great song, so any advices are well appreciated. 
Feel free to comment and rate. Maybe I'll try to tab out some more music
from Rival Sons, because their songs are just mindblowing. 

Intro/Verse

d|--5h7--7--8--8------5h7--7--7--8------------------------------------------|
B|--5h7--7--8--8------5h7--7--7--8------------------------------------------|
G|--5----5--5--5------5----5--5--5------------------------------------------|
D|--5----5--5--5------5----5--5--5------------------------------------------|
G|--------------------------------------------------------------------------|
D|--------------------------------------------------------------------------|


Chorus

d|-------------------5h7--7--8--8-------------------------------------------|
B|--8-8---7-7---5----5h7--7--8--8-------------------------------------------|
G|--8-8---7-7---5----5----5--5--5-------------------------------------------|
D|--8-8---7-7---5----5----5--5--5-------------------------------------------|
G|--8-8---7-7---5-----------------------------------------------------------|
D|--------------------------------------------------------------------------|


d|--------------------------------------------------------------------------|
B|--8-8-8-8----10-10-10-10--------------------------------------------------|
G|--8-8-8-8----10-10-10-10--------------------------------------------------|
D|--8-8-8-8----10-10-10-10--------------------------------------------------|
G|--8-8-8-8----10-10-10-10--------------------------------------------------|
D|--------------------------------------------------------------------------|

"Take it, take it, take it, take it away..."


Bridge

d|---------------------------------|----------------------------------------|
B|---------------------------------|----------------------------------------|
G|---------------------------------|----------------------------------------|
D|---------------------------------|----------------------------------------|
G|--5--5r3--5--8~----5--5r3--5--0--|--5--5r3--5--8~------5r3--5--3----------|
D|---------------------------------|----------------------------------------|


Interlude after second chorus

d|-----------------------|
B|-----------------------|
G|-----------------------|
D|-----------------------|
G|-5-5--3-2-1-0-1-2-3~---|
D|-----------------------|


Progression leading to last chorus (can be played in any chorus as well)

d|--8--8----7--7----5----5h7--7--8--8-----------------------------------|
B|--11-11---10-10---8----5h7--7--8--8-----------------------------------|
G|--8--8----7--7----5----5----5--5--5-----------------------------------|
D|--8--8----7--7----5----5----5--5--5-----------------------------------|
G|--8--8----7--7----5---------------------------------------------------|
D|----------------------------------------------------------------------|








************************************

| /   slide up
| \   slide down
| h   hammer-on
| p   pull-off
| ~   vibrato
| +   harmonic
| x   Mute note
| b   Bend
| pb  Pre-bend
| br  Bend release
| pbr Pre-bend release
| brb Bend release bend

************************************
Tap to rate this tab
# A B C D E F G H I J K L M N O P Q R S T U V W X Y Z