Song name
# A B C D E F G H I J K L M N O P Q R S T U V W X Y Z

Rival Sons - You Want To tab

-------------------------------------------------------------------------------
                             You Want To - Rival Sons
-------------------------------------------------------------------------------
Tabbed by: Joe Dott
E-mail:josephdott@hotmail.com

Tuning: Half Step Down

Awesome song from the new Head Down album, couldn't find the tab anywhere so thought I'd 
give it a go myself! Rock on!


Intro Chords, with what sounds like a bit of Wah
Can be played with power chords but I think it sounds better like this

d#|---------------------------------------------------------------------------|
A#|---5----3------------------------------------------------------------------|
F#|---4----2------------------------------------------------------------------|
C#|---2----0-----------x4-----------------------------------------------------|
G#|---0----0------------------------------------------------------------------|
D#|---x----x------------------------------------------------------------------|


Main Riff played throughout verses
This is just a template, Scott seems to change notes around a bit, just improvise and 
play what sounds good!

d#|---------------------------------------------------------------------------|
A#|---------------------------------------------------------------------------|
F#|-----------------4p0--2p0--------------------------------------------------|
C#|---2-2--5-5--2---------------2p0-------------------------------------------|
G#|---------------------------------------------------------------------------|
D#|---------------------------------------------------------------------------|


Chorus

d#|---------------------------------------------------------------------------|
A#|---5-5-5~---333------------------------------------------------------------|
F#|---4-4-4~---222-----------------222-2~-------------------------------------|
C#|---2-2-2~---000------x8---------222-2~----555-5~---------------------------|
G#|---0-0-0~---000-----------------000-0~----555-5~---------------------------|
D#|---x-x-x~---xxx---------------------------333-3~---------------------------|



Verse 2 - Main Riff

d#|---------------------------------------------------------------------------|
A#|---------------------------------------------------------------------------|
F#|-----------------4p0--2p0--------------------------------------------------|
C#|---2-2--5-5--2---------------2p0-------------------------------------------|
G#|---------------------------------------------------------------------------|
D#|---------------------------------------------------------------------------|

This little bit added in somewhere in the middle

d#|-------------------------12-12---------------------------------------------|
A#|----12-12--15-15--12~-------------15p12---------------12-12--15-15--12~----|
F#|------------------------------------------14p12h14-------------------------|
C#|---------------------------------------------------------------------------|
G#|---------------------------------------------------------------------------|
D#|---------------------------------------------------------------------------|

Chorus 2

d#|---------------------------------------------------------------------------|
A#|---5-5-5~---333------------------------------------------------------------|
F#|---4-4-4~---222-----------------222-2~-------------------------------------|
C#|---2-2-2~---000------x8---------222-2~----555-5~---------------------------|
G#|---0-0-0~---000-----------------000-0~----555-5~---------------------------|
D#|---x-x-x~---xxx---------------------------333-3~---------------------------|


Now there is a little vocal bit which Scott jams over, so just rock it with some improv!

Solo, short and sweet.


Chorus 3

d#|---------------------------------------------------------------------------|
A#|---5-5-5~---333------------------------------------------------------------|
F#|---4-4-4~---222-----------------222-2~-------------------------------------|
C#|---2-2-2~---000------x8---------222-2~----555-5~---------------------------|
G#|---0-0-0~---000-----------------000-0~----555-5~---------------------------|
D#|---x-x-x~---xxx---------------------------333-3~---------------------------|


End on

d#|---------------------------------------------------------------------------|
A#|---------------------------------------------------------------------------|
F#|------9\-------------------------------------------------------------------|
C#|------9\-------------------------------------------------------------------|
G#|------7\-------------------------------------------------------------------|
D#|---------------------------------------------------------------------------|



************************************

| \   slide down
| h   hammer-on
| p   pull-off
| ~   vibrato/let ring
| +   harmonic
| x   Mute note


************************************
Tap to rate this tab
# A B C D E F G H I J K L M N O P Q R S T U V W X Y Z