Song name
# A B C D E F G H I J K L M N O P Q R S T U V W X Y Z

Rival Sons - Wild Animal tab

-------------------------------------------------------------------------------
                             WILD ANIMAL - Rival Sons
-------------------------------------------------------------------------------
Tabbed by: Joe Dott
E-mail: josephdott@hotmail.com

Tuning: Half step down


d#|------------------|
A#|------------------|
F#|------------------|
C#|------------------|
G#|------------------|
D#|------------------|

Intro/Verse

|---------------------------------------------------------------------------|
|---------------------------------------------------------------------------|
|--4-4--7--9----------------------------------------------------------------|
|--4-4--7--9----------------------------------------------------------------|
|--2-2--5--7----------------------------------------------------------------|
|---------------------------------------------------------------------------|

Break

|---------------------------------------------------------------------------|
|---------------------------------------------------------------------------|
|--2-2-2---9-9-9------------------------------------------------------------|
|--2-2-2---9-9-9------------------------------------------------------------|
|--0-0-0---7-7-7------------------------------------------------------------|
|---------------------------------------------------------------------------|


Chorus

|---------------------------------------------------------------------------|
|---------------------------------------------------------------------------|
|---------------------------------------------------------------------------|
|---------------------------------------------------------------------------|
|---2--0-2--5--0-2--7-------------------------------------------------------|
|---------------------------------------------------------------------------|

|---------------------------------------------------------------------------|
|---------------------------------------------------------------------------|
|---4-4--7--9---------------------------------------------------------------|
|---4-4--7--9---------------------------------------------------------------|
|---2-2--5--7---------------------------------------------------------------|
|---------------------------------------------------------------------------|

Verse

|---------------------------------------------------------------------------|
|---------------------------------------------------------------------------|
|--4-4--7--9----------------------------------------------------------------|
|--4-4--7--9----------------------------------------------------------------|
|--2-2--5--7----------------------------------------------------------------|
|---------------------------------------------------------------------------|


Break

|-----------------------------------------------------------------------------|
|-----------------------------------------------------------------------------|
|--2-2-2---9-9-9--------------------------------------------------------------|
|--2-2-2---9-9-9--------------------------------------------------------------|
|--0-0-0---7-7-7--------------------------------------------------------------|
|-----------------------------------------------------------------------------|

Chorus

|---------------------------------------------------------------------------|
|---------------------------------------------------------------------------|
|---------------------------------------------------------------------------|
|---------------------------------------------------------------------------|
|---2--0-2--5--0-2--7-------------------------------------------------------|
|---------------------------------------------------------------------------|

|---------------------------------------------------------------------------|
|---------------------------------------------------------------------------|
|---4-4--7--9---------------------------------------------------------------|
|---4-4--7--9---------------------------------------------------------------|
|---2-2--5--7---------------------------------------------------------------|
|---------------------------------------------------------------------------|

Solo

|---------------------------------------------------------------------------|
|--13b----------------------------------------------------------------------|
|------14-11--11-11-10-10-9999-9b-9-7--------12-15-12-12----12--------------|
|-------------------------------------9---14-------------14-----------------|
|---------------------------------------------------------------------------|
|---------------------------------------------------------------------------|

|-------12-14-12-12---------------------------------------------------------|
|----15-------------15------------------------------------------------------|
|-------------------------------------------------7---------------------7---|
|-----------------------------9p7-9p7-6-9p7-9-9p7---9p7-9p7-6-9p7-9-9p7-----|
|---------------------------------------------------------------------------|
|---------------------------------------------------------------------------|

Chorus

|---------------------------------------------------------------------------|
|---------------------------------------------------------------------------|
|---------------------------------------------------------------------------|
|---------------------------------------------------------------------------|
|---2--0-2--5--0-2--7-------------------------------------------------------|
|---------------------------------------------------------------------------|

|---------------------------------------------------------------------------|
|---------------------------------------------------------------------------|
|---4-4--7--9---------------------------------------------------------------|
|---4-4--7--9---------------------------------------------------------------|
|---2-2--5--7---------------------------------------------------------------|
|---------------------------------------------------------------------------|

Outro

|-----------------------------12--------------------------------------------|
|---------9----------12-12-15------x3---------------------------------------|
|--8-8-11------x3--------------------------14p11~~~-------------------------|
|---------------------------------------------------------------------------|
|---------------------------------------------------------------------------|
|---------------------------------------------------------------------------|


************************************

| /   slide up
| \   slide down
| h   hammer-on
| p   pull-off
| ~   vibrato
| +   harmonic
| x   Mute note
| b   Bend
| pb  Pre-bend
| br  Bend release
| pbr Pre-bend release
| brb Bend release bend

************************************
Tap to rate this tab
 
# A B C D E F G H I J K L M N O P Q R S T U V W X Y Z