Song name
# A B C D E F G H I J K L M N O P Q R S T U V W X Y Z

Rival Sons - Burn Down Los Angeles tab

-------------------------------------------------------------------------------
                             Burn Down Los Angeles - Rival Sons
-------------------------------------------------------------------------------
Tabbed by: Ross
Tuning: Eb Standard (down 1/2 step)
Tone: Cranked british style amp.  Dirty fuzz with lots of overtones for leads.

Note: I play this with a slide on my pinky to get the lead riff, chords and slides 
licks if you don't have a second guitar (and a person to play it).


Intro/Post Chorus 
e|---------------------------------------------------------------------------|
B|--s12~-----------10\-------------------------------------------------------|
G|--s12~-----------10\-------------------------------------------------------|
D|--s12~-----------10\-------------------------------------------------------|
A|--------------------------------------------------8----------------------8-|
E|----------------------------------8h10--10--8h10--------8h10--10--8h10-----|

Verse
e|---------------------------------------------------------------------------|
B|-------[this phrase 3x, then slide part]-------------------12/------10\----|
G|-----------------------------------------------------------12/------10\----|
D|-----------------------------------------------------------12/------10\----|
A|--------------------8---------------------8--------------------------------|
E|---8h10--10--8h10--------8h10--10--8h10------------------------------------|

Chorus 
e|---------------------------------------------------------------------------|
B|------------------------------------------------------------/10------------|
G|------------------------------------------------------------/10------------|
D|---12-------12-------12-------12-------12-------12----------/10------------|
A|---12-------12-------12-------12-------12-------12-------------------------|
E|---10-------10-------10-------10-------10-------10-------------------------|

Riffage 1:06
e|---------------------------------------------------------------------------|
B|---8b11-8-6----------10----------------------------------------[slow bend]-|
G|------------7~~--/12----12~~-----------------7------7---7------7s10-b-12---|
D|------------------------------------------10----10---------10--------------|
A|---------------------------------------------------------------------------|
E|---------------------------------------------------------------------------|

Riffage 1:16
e|---------------------------------------------------------------------------|
B|-------------------------------------------------------------------10\-----|
G|---/12--10---12---10-10\-------------------------------------------10\-----|
D|---/12--10---12---10-10\-------------------------------------------10\-----|
A|---------------------------------------------------------------------------|
E|---------------------------------------------------------------------------|

Riffage 1:30
e|--15\------s10--s10--------------------------------------------------------|
B|--15\------s10--s10--------13tr15------------------12s----------------22\--|
G|------------------------/14------------------------12s-[slide up to]--22\--|
D|---------------------------------------------------12s----------------22\--|
A|---------------------------------------------------------------------------|
E|---------------------------------------------------------------------------|
Tap to rate this tab
# A B C D E F G H I J K L M N O P Q R S T U V W X Y Z