Song name
# A B C D E F G H I J K L M N O P Q R S T U V W X Y Z

River City Extension - Something Salty Something Sweet tab

-------------------------------------------------------------------------------
	   SOMETHING SALTY, SOMETHING SWEET - River City Extension
-------------------------------------------------------------------------------
Tabbed by: BananasGorilla
Email: 

Tuning: Standard

 (intro + verse)
e|--x--x--x--x---6--6--6--6--------------------------------------------------|
B|--8--8--8--8---6--6--6--6--------------------------------------------------|
G|--8--8--8--8---7--7--7--7--------------------------------------------------|
D|--8--8--8--8---8--8--8--8--------------------------------------------------|
A|--6--6--6--6---8--8--8--8--------------------------------------------------|
E|--x--x--x--x---6--6--6--6--------------------------------------------------|

 (chorus) x4
e|--3--4--x--6---------------------------------------------------------------|
B|--4--4--8--6---------------------------------------------------------------|
G|--5--5--8--7---------------------------------------------------------------|
D|--5--6--8--8---------------------------------------------------------------|
A|--3--6--6--8---------------------------------------------------------------|
E|--3--4--x--6---------------------------------------------------------------|

 (1:54)
e|---------------------------------------------------------------------------|
B|---------------------------------------------------------------------------|
G|---------------------------------------------------------------------------|
D|---------------------5-----------------------------------------------------|
A|----------5--3-3-5h6-------------------------------------------------------|
E|--3-3-5h6------------------------------------------------------------------|

 (violin intro)							                     (Emily...)
e|----8-6-3-1------8-6-3-1----8-6-3-1----8-6-3-1----8-6-3-1------------------|
B|--4---------3--4----------4----------4----------4--------------------------|
G|---------------------------------------------------------------------------|
D|---------------------------------------------------------------------------|
A|---------------------------------------------------------------------------|
E|---------------------------------------------------------------------------|

 (violin outro)
e|---------------------------------------------------------------------------|
B|--6h8-4-3-1----------------------------------------------------------------|
G|---------------------------------------------------------------------------|
D|---------------------------------------------------------------------------|
A|---------------------------------------------------------------------------|
E|---------------------------------------------------------------------------|


************************************

| /   slide up
| \   slide down
| h   hammer-on
| p   pull-off
| ~   vibrato
| +   harmonic
| x   Mute note
| b   Bend
| pb  Pre-bend
| br  Bend release
| pbr Pre-bend release
| brb Bend release bend

************************************
Tap to rate this tab
 
# A B C D E F G H I J K L M N O P Q R S T U V W X Y Z