Song name
# A B C D E F G H I J K L M N O P Q R S T U V W X Y Z

River City Rebels - Corporate America tab

I tabbed this song completely by ear so i am not 100% at all but enjoy :)



Intro- not 100% percent sure if this is right
|----------|--------------------------------------|
|----------|---------------------3-3-3-3-3-3-3-3--|
|-2--2-----|-----2-2-2-2-2-2-2-2-2-2-2-2-3-2-2-2--| X 4
|-2--2--x1-|-----2-2-2-2-2-2-2-2-2-2-2-2-2-2-2-2--|
|-0--0-----|-----0--------------------------------|
|----------|--------------------------------------|



Verse
|------------------|
|----------3-3-----|
|----------2-2-2---|
|--2-2-2-2-0-0-2---|   X 4
|--2-2-2-2-----0---|
|--0-0-0-0---------|



Chorus
|----------|
|--3-------|
|--2-2-2---|
|--0-2-2-2-|      X 4
|----0-0-2-|
|--------0-|

Bridge
-----------------------|
|----------------------|
|--2-------------------|
|--2-------------------| Listen to rhythm of song (add palm muting too)
|--0-------------------|
|----------------------|

"Die Die Die Corporate America" (I think)
|-------------------|
|-----------3-3-3-3-|
|--2-2-2-2--2-2-2-2-| X 4
|--2-2-2-2--0-0-0-0-|
|--0-0-0-0----------|
|-------------------|


Song Order

Drum Intro X4
Intro X4
Verse X4
Chorus X4
Intro X4
Verse X4
Chorus X4
Bridge X2
2nd part of bridge X4
Chorus X4

End song on A

Have fun!!!

this is a great song
Tap to rate this tab
# A B C D E F G H I J K L M N O P Q R S T U V W X Y Z