Song name
# A B C D E F G H I J K L M N O P Q R S T U V W X Y Z

River City Rebels - Hurt Like I Do tab

River City Rebels - Hurt Like I Do
Tabbed By: zerozeroten
Email: zerozeroten0010@yahoo.com

Tuning: Standard (E A D G B E)



Intro/Verse 0:01, slight distortion
E|--------------------------------||
B|-------------------------1---1--||
G|----0-------0-------2-----2---2-||
D|--2---2---2---2---2---2----2----||
A|3---------------0---------------||
E|--------0-----------------------||
  C       E       A 

Repeat until 1:11.

Then guitar 1 plays the same chords (C, E, and A) occasionally picking
individual stings. Listen to the song if you don't understand what
I'm talking about.

Guitar 2 plays
E|------------||
B|------------||
G|5---5-------||
D|5---5---7---||
A|3---7---7---||
E|----0---5---||

At 1:31, go back to playing the intro/verse riff.
End by strumming an A chord.

When the music starts again, guitar 1 goes back to playing the chords,
and guitar 2 playing the power chords.

I saw them live and they used two guitars, but if you want, it sounds 
fine with only one. Just play the power chords where both guitars
would be playing.
Tap to rate this tab
 
# A B C D E F G H I J K L M N O P Q R S T U V W X Y Z