Song name
# A B C D E F G H I J K L M N O P Q R S T U V W X Y Z

River City Rebels - Small Town Pride tab

River City Rebels
Small Town Pride
Off of Playing to Live, Living To Play
Tabbed by Max B.
Standard tuning  EADGBE

Intro- Clean first time Distortion after

            Guitar 1
E|------------------------------|
B|------------------------------|
G|-7-----7----------------------|  3X
D|-7--7--7--7--5-5-5-7---5-5-5-7|
A|-5--7--5--7--5-5-5-7---5-5-5-7|
E|----5-----5--3-3-3-5---3-3-3-5|

            SECOND PART TO INTRO

            Guitar 1 
E|-----------------------------|
B|-----------------------------|
G|-7------------7--------------|
D|-7-HOLD-------7--HOLD--------| 2 TIMES
A|-5------------5--------------|
E|-----------------------------|

             THEN

            Guitar 2

E|10-10-10-9--10-10-10-9--10-10-9--10-10-9--10-10-9--10|
B|-----------------------------------------------------|
G|-----------------------------------------------------|
D|-----------------------------------------------------|
A|-----------------------------------------------------|
E|-----------------------------------------------------|

             Verse
E|--------------------------------------------------|
B|--------------------------------------------------|
G|7-7-7-7-7-7---------------------------------------|
D|7-7-7-7-7-7--7-7-7-7-7-7--5-5-5-5-5-5--7-7-7-7-7-7|
A|5-5-5-5-5-5--7-7-7-7-7-7--5-5-5-5-5-5--7-7-7-7-7-7|
E|-------------5-5-5-5-5-5--3-3-3-3-3-3--5-5-5-5-5-5|

             Chorus
E|-----------------------------------|
B|-----------------------------------|
G|-7-7------7-7-------------7-7-7----|
D|-7-7--7---7-7--7--5-5--7-7-7-7-7-7-|
A|-5-5--7---5-5--7--5-5--7-7-5-5-5-7-|
E|------5--------5--3-3--5-5-------5-|

             Breakdown
E|-------------------------------|
B|-------------------------------|
G|-7-7-7---6-6-6-----------------|
D|-7-7-7---6-6-6---9-9-9---7-7-7-|
A|-5-5-5---4-4-4---9-9-9---7-7-7-|
E|-----------------7-7-7---5-5-5-|
 PM----  PM---   PM---    PM--

E|--------------------------------|
B|--------------------------------|
G|-7-------6----------------------|
D|-7-------6-------9-------7------|
A|-5-HOLD--4-HOLD--9-------7------|
E|-----------------7-HOLD--5-HOLD-|

             NA NA NA NA NA'S
E|--------------------------------------------|
B|--------------------------------------------|
G|-7-7-7-7-7--6-6-6-6-6-----------------------|
D|-7-7-7-7-7--6-6-6-6-6--9-9-9-9-9--7-7-7-7-7-|
A|-5-5-5-5-5--4-4-4-4-4--9-9-9-9-9--7-7-7-7-7-|
E|-----------------------7-7-7-7-7--5-5-5-5-5-|


ORDER:
      ALL OF INTRO
      VERSE
      CHORUS
      SECOND PART OF INTRO
      VERSE
      CHORUS
      BREAKDOWN
      CHORUS

LISTIN TO SONG AND THIS WILL BE EASIER TO UNDERSTAND
Tap to rate this tab
# A B C D E F G H I J K L M N O P Q R S T U V W X Y Z