Song name
# A B C D E F G H I J K L M N O P Q R S T U V W X Y Z

River City Rebels - Glitter And Gold tab

Help us improve GuitareTab! Take a short survey!
intro
--4~5-5-5--4~5-5-5--4~5-5-------------------------|
--4~5-5-5--4~5-5-5--4~5-5----5-5-5-5-5-5-5-5---5--|
---------------------------b^7-7-7-7-7-7-7-7-/b7--|
--------------------------------------------------|
--------------------------------------------------|
--------------------------------------------------|

--------------------------------------------|
--------------------------------------------|
--4~5-5-5--4~5-5-5--4~5-5--7-7-7-7-7-7-5----|
--4~5-5-5--4~5-5-5--4~5-5--7-7-7-7-7-7-5-0--|
--------------------------------------------|
--------------------------------------------|

--9----------------9--------------|
----12-10-12-10------12-10-12-10--|
----------------9-----------------|
----------------------------------|
----------------------------------|
----------------------------------|

--9----------------9--------------|
----12-10-12-10------12-10-12-10--|
----------------9-----------------|
----------------------------------|
----------------------------------|
----------------------------------|

verse
------------------------------------------------------|
------------------------------------------------------|
-------------2-2-4-2-2--------------------------------|
--2-2-4-2-2--0-0-0-0-0--------------------------------|
--0-0-0-0-0-------------2-2-2-2-2-2-2--2-2-2-2-2-2-2--|
------------------------0-0-2-3-0-0-0--0-0-2-3-0-2-3--|


pre-chorus

(a)
----------------------------------------------------------|
----------------------------------------------------------|
-----------------2-2-4-2-2-2-2----------------------------|
--2-2-4-2-2-2-2--0-0-0-0-0-0-0--2-2-4-2-2-2-2-2-2---------|
--0-0-0-0-0-0-0-----------------0-0-0-0-0-0-0-0-0--2---2--|
-----------------------------------------------------3----|

--------------------------------------------------------------------|
--------------------------------------------------------------------|
-----------------2-2-4-2-2-2-2--------------------------------------|
--2-2-4-2-2-2-2--0-0-0-0-0-0-0--2-2-4-2-2-2-2-2-2-------------------|
--0-0-0-0-0-0-0-----------------0-0-0-0-0-0-0-0-0--2---2---2---2----|
-----------------------------------------------------3---3---3---3--|

(b)
----------------------------------------------------------|
----------------------------------------------------------|
-----------------2-2-4-2-2-2-2----------------------------|
--2-2-4-2-2-2-2--0-0-0-0-0-0-0--2-2-4-2-2-2-2-2-2---------|
--0-0-0-0-0-0-0-----------------0-0-0-0-0-0-0-0-0--2---2--|
-----------------------------------------------------3----|

----------------------------------------------------------------|
----------------------------------------------------------------|
-----------------2-2-4-2-2-2-2----------------------------------|
--2-2-4-2-2-2-2--0-0-0-0-0-0-0--2-2-4-2-2-2-2-2-2---------------|
--0-0-0-0-0-0-0-----------------0-0-0-0-0-0-0-0-0--2---2---2----|
-----------------------------------------------------3---3---3--|

chorus

D E- A   D E- A   F#(single note)  D E- A


interlude
----------------------------------------------------------- |               _
--------------------------------------               ------ |
--------------------------------------               ------ |
----------5~----------4~--------------  (pickslide)   | x 3 |
--4-7-4-7-----4-7-4-7-----4-7-4-7--7--               ------ |
-----------------------------------5----------------------- |               _

----------------------------------------------------|
----------------------------------------------------|
----------------------------------------------------|
----------5~----------4~----------------------------|
--4-7-4-7-----4-7-4-7-----4-7-4-7--7--7--7-7-7-7-7--|
-----------------------------------5--5--5-5-5-5-5--|


outro

D  E- A  x 3   D E- A D A


order:

intro
verse x 4
pre-chorus(a)
chorus
verse x 4
pre-chorus(b)
chorus
interlude
outro
Related for Glitter And Gold tab