Song name
# A B C D E F G H I J K L M N O P Q R S T U V W X Y Z

Riverboat Gamblers - Last To Know tab

Intro-
Lead
e-----11-12-11-------------------------------------|
b---12---------------------------------------------| Repeat this 20 times.
g--------------------------------------------------|
d--------------------------------------------------|
a--------------------------------------------------|
E--------------------------------------------------|
Rhythm- After fourth repetition of lead.
e--------------------------------------------------|
b--------------------------------------------------|
g--------------------------------------------------|Repeat two times, then..
d--6-6-6666-------------2-2-2222-------------------|
a--4-4-4444--7-7-7777---2-2-2222-------------------|
E------------5-5-5555---0-0-0000-------------------|


Verse-
e---------------------------------------------------|
b---------------------------------------------------|
g---------------------------------------------------|
d---------222222222222222222222222222222-44444444444|
a-7-7--2--222222222222222222222222222222-22222222222|
E-5-5--0--000000000000000000000000000000------------|
          ..............................


e---------------------------------------------------------|
b---------------------------------------------------------|
g---------------------------------------------------------|
d-222222222222222222222222222222-44444444444--------------|
a-222222222222222222222222222222-22222222222-777777777777-|
E-000000000000000000000000000000-------------555555555555-|
  ..............................


Chorus- Same as Rhythm intro.

Bridge-Rhythm
e--------------------------------------------------|
b--------------------------------------------------|
g--------------------------------------------------|Repeat 3 times.
d-4-4444444444444--666666--------------------------|
a-2-2222222222222--444444--777777------------------|
E--------------------------555555------------------|

e--------------------------------------------------|
b--------------------------------------------------|
g--------------------------------------------------|
d-4-4444444444444--6-6---------2-------------------|
a-2-2222222222222--4-4-xxxx7---2-------------------|
E----------------------xxxx5---0-------------------|


Bridge-Lead.  It's kind of hard to make out, but this is what it sounds like to me.
e------------12121212121212121212--12121212121212121212-12121212|
b------------12121212121212121212--10101010101010101010-9-9-10-9|
g---------------------------------------------------------------|
d-xpickscrape---------------------------------------------------|
a-xpickscrape---------------------------------------------------|
E---------------------------------------------------------------|

e------12------12------12------12-----------------------|
b-9-10----9-10----9-10----9-10-----9-10-12--10-9-10-999-|
g-------------------------------------------------------|
d-------------------------------------------------------|
a-------------------------------------------------------|
E-------------------------------------------------------|

End on

e-------------| and lead end on  b----12~-----|
b---------------------------------------------|
g---------------------------------------------|
d--2-~----------------------------------------|
a--2-~----------------------------------------|
E--0-~----------------------------------------|

Rhythm                 Lead
Intro                  Intro
Verse                  xx
Chorus                 xx
Verse                  xx
Chorus                 xx
Bridge                 Bridge
Verse                  xx
Chorus                 xx
Chorus                 Intro

Really good song, and easy and fun to play. I missed a few lead parts that were hard to
out, the lead is kind of in the back on this song. There are also a few more pick
that I didn't write out, I'm sure you can figure those out on your own. I'm fairly sure 
is accurate, sounds right to me. Enjoy!
Tap to rate this tab
# A B C D E F G H I J K L M N O P Q R S T U V W X Y Z