Song name
# A B C D E F G H I J K L M N O P Q R S T U V W X Y Z

Riverboat Gamblers - True Crime tab

                  The Riverboat Gamblers - True Crime

Standard Tuning

Intro/Verse/Pre-Chorus
------------------------------|
------------------------------|
---1111111111111111-----------|
---x-x-x-x-x-x-x-x------------|
---9-9-9-9-9-9-9-9---99--77---|
---------------------77--55---|

Chorus
-----------------------|
-----------------------|
-----------------------|
--4--------9------7----|
--4-x16----9-x8---7-x8-|
--2--------7------5----|


0:57
--------------------|
--------------------|
----11--11--11--9---|
--------------------|
--------------------|
--------------------|

Pre-Chorus/Verse

Chorus

1:35
----------------------|
----------------------|
--7-----9------11-----|  x2
--7-x8--9-x8---11-x8--|
--5-----7------9------|
----------------------|

Bridge
-----------------------------------------|
-----------------------------------------|
---13//1414-----14-14-14-14/13-13-13-13--|
---xx--xxxx-----xx-xx-xx-xx-xx-xx-xx-xx--|
---11//1212-----12-12-12-12/11-11-11-11--|
-----------------------------------------|

--------------------------------------------------------------------|
--------------------------------------------------------------------|
--11---13----14----16----18----16-----------18-----16-----14----12--|
--x-x8-xx-x8-xx-x8-xx-x8-xx-x8-xx-x8--------xx-x4--xx-x4--xx-x4-xx--|
--9----11----12----14----16----14-----------16-----14-----12----10--|
--------------------------------------------------------------------|

----------------------|
----------------------|
---9999--1111--99--7--|
---9999--1111--99--7--|
---7777--9-9---77--5--|
----------------------|

Chorus
Tap to rate this tab
 
# A B C D E F G H I J K L M N O P Q R S T U V W X Y Z