Song name
# A B C D E F G H I J K L M N O P Q R S T U V W X Y Z

Riverboat Gamblers - Dissdissdisskisskisskiss chords

-------------------------------------------------------------------------------
			     DISSDISSDISSKISSKISSKISS - Riverboat Gamblers
-------------------------------------------------------------------------------
Tabbed by: adam lee
Email: me@adamleesteinberg.com

Tuning: standard

check out their video on youtube for this, love it.

oh and my tabs are always terrible but the notes are right, just figure out the 
rhythm and strumming by ear and you're good

Intro 
e|---------------------------------------------------------------------------|
B|---------------------------------------------------------------------------|
G|---------------------------------------------------------------------------|
D|---------------------------------------------------------------------------|
A|-bend around till it starts------------------------------------------------|
E|--7------------------------------------------------------------------------|

Main riff
e|---------------------------------------------------------------------------|
B|---------------------------------------------------------------------------|
G|---------------------------------------------------------------------------|
D|---------------------------------------------------------------------------|
A|----997799--775533--445544------00-----------------------------------------|
E|--77------55------33------220022-------------------------------------------|

before first verse thingy (action action kitty kitty)
e|---------------------------------------------------------------------------|
B|---------------------------------------------------------------------------|
G|--------------------------bend maybe, not sure about this------------------|
D|---------------------------999---------------------------------------------|
A|---------------------------777---------------------------------------------|
E|---77-75-77-75-77-75-77-75-------------------------------------------------|

Main verse first time
e|---------------------------------------------------------------------------|
B|---------------------------------------------------------------------------|
G|---------------------------------------------------------------------------|
D|-----------------------------------------7777777-----------------22--------|
A|99999--777777--9999999--7777777--555555--5555555-555555-44-22-44-00--------|
E|77777--555555--7777777--5555555--333333----------333333-22-00-22-----------|
    B       A       B        A        G       D       G   F# E  F#  A

Main verse second time 
e|---------------------------------------------------------------------------|
B|---------------------------------------------------------------------------|
G|---------------------------------------------------------------------------|
D|-----------------------------------------7777777---------------------------|
A|99999--777777--9999999--7777777--555555--5555555-555555-44-44-44-44-77-----|
E|77777--555555--7777777--5555555--333333----------333333-22-22-22-22-55-----|

song ends on hitting F# several times then twice on B.
please send any corrections or whatever!
===============================================================================
Tap to rate this tab
 
# A B C D E F G H I J K L M N O P Q R S T U V W X Y Z