Song name
# A B C D E F G H I J K L M N O P Q R S T U V W X Y Z

Riverboat Gamblers - Dont Bury Me Im Still Not Dead tab

Help us improve GuitareTab! Take a short survey!
----------------------------------------------------------------------------
                   "Don't Bury Me...I'm Still Not Dead"
                            Riverboat Gamblers
----------------------------------------------------------------------------

Standard Tuning with distortion.

Palm Mute-
.........

Let Ring-
~

Both guitars play the same thing except on the intro/chorus.


Intro / Chorus:

(Lead)

e--------------------------------------------------|
b--------------------------------------------------|
g--9--9--9--9--9--9--9--9--14-14-14-13-13-13-13-13-|
d--x--x--x--x--x--x--x--x--x--x--x--x--x--x--x--x--|
a--7--7--7--7--7--7--7--7--12-12-12-11-11-11-11-11-|
E--------------------------------------------------|

e--------------------------------------------------|
b--------------------------------------------------|
g--11-11-11-11-11-11-11-11-9--9--9--9--9--9--9--9--|
d--x--x--x--x--x--x--x--x--x--x--x--x--x--x--x--x--|
a--9--9--9--9--9--9--9--9--7--7--7--6--6--6--6--6--|
E--------------------------------------------------|

(Rhythm)
   E                               B
e-------------------------------------------------------------------|
b--9-9-9-9-9-9-9-9-9-9-9-9-9-9-9-9----------------------------------|
g--9-9-9-9-9-9-9-9-9-9-9-9-9-9-9-9-8-8-8-8-8-8-8-8-8-8-8-8-8-8-8-8--|
d--9-9-9-9-9-9-9-9-9-9-9-9-9-9-9-9-9-9-9-9-9-9-9-9-9-9-9-9-9-9-9-9--|
a--7-7-7-7-7-7-7-7-7-7-7-7-7-7-7-7-9-9-9-9-9-9-9-9-9-9-9-9-9-9-9-9--|
E----------------------------------7-7-7-7-7-7-7-7-7-7-7-7-7-7-7-7--|

Verse
E                    B
To all the given ups, the special needs crew.
A                     E
To all those who were told "we didn't need you."
A                     E
To all the people who are eating all alone,
B
you know something fucked that kid up good.


Bridge
E            B
To all those who wake up at
A                E
dawn, underpayed and then shit upon.
A         E                 B
To all my friends who never had a chance.

A                         E
To those who closed their eyes,
                          B
thinking they'd be better off...for now.
A                          E                   B
To those who felt that the gods kept them from getting out,

this town.


Pre-Chorus
C#m         A
To spite as a reason.
E              B
To clothes out of season.
C#m            A          E        B
To those stuck in caskets as nails hammer in.

Just keep screaming out...         I'm still not-
   A                               B
e-------------------------------------------------------------------|
b-------------------------------------------------------------------|
g-------------------------------------------------------------------|
d----------------------------------9-9-9-9-9-9-9-9-9-9-9-9-9-9-9-9--|
a--7-7-7-7-7-7-7-7-7-7-7-7-7-7-7-7-9-9-9-9-9-9-9-9-9-9-9-9-9-9-9-9--|
E--5-5-5-5-5-5-5-5-5-5-5-5-5-5-5-5-7-7-7-7-7-7-7-7-7-7-7-7-7-7-7-7--|
   ...............................................................


Outro
   C#m          A            E            B            E
Right!Right!  Right!Right!  Right!Right! Right!Right!
e---------------------------------------------------------|
b--5-5-5-5-------------------9-9-9-9-------------------8~-|
g--6-6-6-6------6-6-6-6------9-9-9-9------8-8-8-8------9~-|
d--6-6-6-6------7-7-7-7------9-9-9-9------9-9-9-9------9~-|
a--4-4-4-4------7-7-7-7------7-7-7-7------9-9-9-9------7~-|
E---------------5-5-5-5-------------------7-7-7-7------0~-|

Order:

Intro/Chorus
Verse
Bridge
Pre-Chorus
Intro/Chorus
Verse
Bridge
Pre-Chorus
Intro/Chorus
Outro

Pretty cool song for punk with just a bit of poppyness. I only heard this song from 
to the 2006 Warped Tour Compilation but I really like it. I also hope you find this pretty 
PM me with questions, etc.

--Particle man
Related for Dont Bury Me Im Still Not Dead tab