Song name
# A B C D E F G H I J K L M N O P Q R S T U V W X Y Z

Riverdales - The Beginning Of The End tab

-------------------------------------------------------------------------------
		THE BEGINNING OF THE END - Riverdales
-------------------------------------------------------------------------------
Album: Tarantula - 2010
Tabbed by: laststoptokyo
Email: xwishresignx@gmail.com

Tuning: Standard


Intro (x2)
e|---------------------------------------------------------------------------|
B|---------------------------------------------------------------------------|
G|---------------------------------------------------------------------------|
D|--8-8-8-8-8-8-8-8----------------------------------------------------------|  x2
A|--8-8-8-8-8-8-8-8----------------------------------------------------------|
E|--6-6-6-6-6-6-6-6----------------------------------------------------------|

Verse Pt 1 (x2)
"The beginning of the end..."
e|---------------------------------------------------------------------------|
B|---------------------------------------------------------------------------|
G|-----------6-6------------6-6----------------------------------------------|
D|--8-8-8-8--6-6--6-6--4-4--6-6--6-6-6-6-------------------------------------|  x2
A|--8-8-8-8--4-4--6-6--4-4--4-4--6-6-6-6-------------------------------------|
E|--6-6-6-6-------4-4--2-2-------4-4-4-4-------------------------------------|

Verse Pt 2
"It's too little, too late..." (x2)
e|---------------------------------------------------------------------------|
B|---------------------------------------------------------------------------|
G|-------6-6-----------------------------------------------------------------|
D|--4-4--6-6--6-6-6-6--------------------------------------------------------| x2
A|--4-4--4-4--6-6-6-6--------------------------------------------------------|
E|--2-2-------4-4-4-4--------------------------------------------------------|

"And now it's the beginning..."
e|---------------------------------------------------------------------------|
B|---------------------------------------------------------------------------|
G|-------6-6-------8-8-------------------------------------------------------|
D|--4-4--6-6--6-6--8-8--8-8-8-8-8-8-8-8--------------------------------------|
A|--4-4--4-4--6-6--6-6--8-8-8-8-8-8-8-8--------------------------------------|
E|--2-2-------4-4-------6-6-6-6-6-6-6-6--------------------------------------|

-REPEAT VERSE, THEN PLAY BRIDGE-

Bridge
"Oh, what have I done..."
e|---------------------------------------------------------------------------|
B|---------------------------------------------------------------------------|
G|-----------6-6-6-6---------------------------------------------------------|
D|--4-4-4-4--6-6-6-6--8-8-8-8-8-8-8-8----------------------------------------|
A|--4-4-4-4--4-4-4-4--8-8-8-8-8-8-8-8----------------------------------------|
E|--2-2-2-2-----------6-6-6-6-6-6-6-6----------------------------------------|

"I just murdered my baby..."
e|---------------------------------------------------------------------------|
B|---------------------------------------------------------------------------|
G|---------------------------------------------------------------------------|
D|--4-4-4-4--6-6-6-6--8-8-8-8-8-8-8-8----------------------------------------|
A|--4-4-4-4--6-6-6-6--8-8-8-8-8-8-8-8----------------------------------------|
E|--2-2-2-2--4-4-4-4--6-6-6-6-6-6-6-6----------------------------------------|

"Oh, what have I done tonight"
e|---------------------------------------------------------------------------|
B|---------------------------------------------------------------------------|
G|-----------6-6-6-6---------------------------------------------------------|
D|--4-4-4-4--6-6-6-6--8-8-8-8-8-8-8-8--6-6-6-6-6-6-6-6-6-6-6-6-6-6-6-6-------|
A|--4-4-4-4--4-4-4-4--8-8-8-8-8-8-8-8--6-6-6-6-6-6-6-6-6-6-6-6-6-6-6-6-------|
E|--2-2-2-2-----------6-6-6-6-6-6-6-6--4-4-4-4-4-4-4-4-4-4-4-4-4-4-4-4-------|

-REPEAT VERSE PT 1-
-AFTER VERSE PT 1 PLAY VERSE PT 2 TWICE-

Outro
"Oh, what have I done..."
e|---------------------------------------------------------------------------|
B|---------------------------------------------------------------------------|
G|-----------6-6-6-6---------------------------------------------------------|
D|--4-4-4-4--6-6-6-6--8------------------------------------------------------|
A|--4-4-4-4--4-4-4-4--8--(let ring)------------------------------------------|
E|--2-2-2-2-----------6------------------------------------------------------|


************************************

| /   slide up
| \   slide down
| h   hammer-on
| p   pull-off
| ~   vibrato
| +   harmonic
| x   Mute note
| b   Bend
| pb  Pre-bend
| br  Bend release
| pbr Pre-bend release
| brb Bend release bend

************************************
Tap to rate this tab
 
# A B C D E F G H I J K L M N O P Q R S T U V W X Y Z